» » »

Isnt She Lovely Bass tabs (ver.1)

Artists:  A B C D E F G H I J K L M N O P Q R S T U V W X Y Z # 

Isnt She Lovely Bass tabs (ver.1)

Victor Wooten
Rating:
0/5 (0 votes)

Tabs too difficult? Try these video lessons and learn fast.
                
This song is based on two loops, verse and chorus, and one additional
"solo" loop and as with most other tabs this is just to get an idea of
how to play this song.

Tuning: E,A,D,G

Tab Legend:
x = Ghost Note



Chorus Loop(1st layer):
|-------13---------13------11--11---------11--11----x-------11-------11--|
|-------11---------11------10--10---------10--10------------9--------9---|
|--12-------x-x-12-------x-12-----x-x-12---------x---0h11-----x-x-x------|
|------------------------------------------------------------------------|

|--9--9---9--------9---9----------9---------9-------9--9----8--8----9--|
|--11-11--11-------11--11---------7---------7-------7--7----9--9----6--|
|--------------------------11--9-----x-x-9-----9-7------------------7--|
|--9--9------x-x-9----------------------------------5----5--7----7-----|

|--------------6-8-9---------|
|----------6-9---------------|
|------7-9------------7--x-x-|
|--7-9-----------------------|

Just to make it clear, this is the first thing you record on the looper
and then you overdub it with the loop below

Chorus Loop(2nd layer/overdub)
|--------------------------------------------------------------------------------------------|
|-----------------------9-7--6---------------------------------------------------------------|
|--4---x--4-4-------4-7--------9-7-----------4-4--x---4--4--------------------0--x-0-2--2----|
|-------------4--5-----------------4--x-4-4---------4------4--2--x-2-2--2-3-4--------------0-|



Verse Loop(1st layer)
|-----9---------9----9------x-----9---------9---9------x----9--------8--8-----x-----7-------7--6--5|
|-----11--------11---11-----x-----11--------11--11-----x----9--------9--9-----x-----7--------------|
|-----------------------11-----9-----x-x-9---------------------------------7-----5----x-x-5----4--3|
|-9------x-x-9--------------------------------------9----7----x-x-7--------------------------------|

Verse Loop(2nd layer/overdub)
|------------------4---------------|
|----------4-----------------2-1-0-|
|--4----------4-2------------------|
|-----4-2-------------2-0----------|


"Solo" Loop
|---------------------------------------------|
|---------------------------------------------|
|--4--x-------------4-3--2--x-----------7-6-5-|
|--------4--x-2--x-------------2--x-0---------|

Make sure to stress the 2s and 4s in every bar throughout the song


The rest of the song is pretty much just a solo beginning with the actual verse
and chorus melody

Verse Melody
|--13-14-13-------------13-14-13----------------13-14-13-------------13-14-13-----------------|
|-------------16---14-------------16--14-------------------16---14-------------16--14---------|
|------------------------------------------14------------------------------------------16--14-|
|---------------------------------------------------------------------------------------------|

Chorus Melody
|--13-14--16-16----13-13--16--14------13-----13-----------------------------13--14--13------------|
|----------------------------------------16--------16-14--16---14------------------------16---14--|
|-----------------------------------------------------------------16--14--------------------------|
|-------------------------------------------------------------------------------------------------|

|--13--14--13--------------------------|
|---------------16---14-------------16-|
|-------------------------16---14------|
|--------------------------------------|
            
Tabs too difficult? Try these video lessons and learn fast.


comments powered by Disqus
↑ Back to top | Tablatures and chords are parodies/interpretations of the original songs. You may use it for private study, scholarship, research or language learning purposes only