» » »

Victoria Justice, You're The Reason Tabs (ver.1)

Artists:  A B C D E F G H I J K L M N O P Q R S T U V W X Y Z # 

You're The Reason Tabs (ver.1)

Victoria Justice Tabs
 Rating:
4/5 (4 votes)
You're The Reason lessons Tabs too difficult? Try these video lessons and learn fast
1
                Victoria Justice - You're the Reason TABS


Intro:

4x
|----------||------------||--------------|
|----------||------------||--------------|
|----------||------------||---7-7--------|
|-7-8-8-7--||-7-8-8-7----||-7-7-7-7------|
|-7-8-8-7--||-7-8-8-7----||-7-5-5-7------|
|-5-6-6-5--||-5-6-6-5----||-5-----5------|


Chorus:
3x
----------------------------||--------------------|
|---------------------------||--------------------|
|-------------------7-7-7---||-----------7-7------|
|-7-7-7-2-2-2-4-4-4-7-7-7---||-7-8-8-7-7-7-7-7----|
|-7-7-7-2-2-2-4-4-4-5-5-5---||-7-8-8-7-7-5-5-7----|
|-5-5-5-0-0-0-2-2-2---------||-5-6-6-5-5-----5----|



Solo:
3x
|--------------------------|
|--------------------------|
|--------------------------|
|---4----3--2----0-1-------|
|-4----4-------4------2-4--|
|--------------------------|
            
Submit corrections

comments powered by Disqus
↑ Back to top | Victoria Justice Tabs for You're The Reason. Lyrics for acoustic guitar and electric guitar. 1 Tablatures and chords are parodies/interpretations of the original songs. You may use it for private study, scholarship, research or language learning purposes only