» » »

Victor E Leo, Vida Boa Tabs (ver.1)

Artists:  A B C D E F G H I J K L M N O P Q R S T U V W X Y Z # 

Vida Boa Tabs (ver.1)

Victor E Leo Tabs
 Rating:
4/5 (4 votes)
Vida Boa lessons Tabs too difficult? Try these video lessons and learn fast
                
Tuning: Standard (capo 4th fret)


Intro:
          (play 6x)
--------- -2---0-|
-2--3--5- -3---3-|
--------- -2---2-|
--------- -0---0-|
-0--2--4- -------|
--------- -------|


Part 1: (play 2x)

-2--------------------------------|
-3---2---3-------2--------2--3--5-|
-2---2---4---0---2---or-----------|
-0---2---4---2---2----------------|
-----0---2---2---0--------0--2--4-|
-------------0--------------------|


Pre-Chorus:

---------------------------|
-3---2-------2-----2--3--5-|
-4---2---0---2-------------|
-4---4---2---2-------------|
-2---4---2---0-----0--2--4-|
-----2---0-----------------|


Chorus:

-2---------------------------------- ---2----------------|
-3---2---3-------2--------2--3--5--- ---3---2---3------2-|
-2---2---4---0---2---or------------- ---2---2---4---0--2-|
-0---2---4---2---2------------------ ---0---2---4---2--2-|
-----0---2---2---0--------0--2--4--- -------0---2---2--0-|
-------------0---------------------- ---------------0----|


Intro:

(play 6x)
-2---0-|
-3---3-|
-2---2-|
-0---0-|
-------|
-------|


Part 2: (play 2x)

-2--------------------------------|
-3---2---3-------2--------2--3--5-|
-2---2---4---0---2---or-----------|
-0---2---4---2---2----------------|
-----0---2---2---0--------0--2--4-|
-------------0--------------------|


Pre-Chorus:

---------------------------|
-3---2-------2-----2--3--5-|
-4---2---0---2-------------|
-4---4---2---2-------------|
-2---4---2---0-----0--2--4-|
-----2---0-----------------|


Chorus:

-2---------------------------------- ---2----------------|
-3---2---3-------2--------2--3--5--- ---3---2---3------2-|
-2---2---4---0---2---or------------- ---2---2---4---0--2-|
-0---2---4---2---2------------------ ---0---2---4---2--2-|
-----0---2---2---0--------0--2--4--- -------0---2---2--0-|
-------------0---------------------- ---------------0----|


Chorus 2:

(play 4x)
-2---0- -------------------------------- ---2-----------------2-|
-3---3- -2---3-------2--------2--3--5--- ---3---2---3------2--3-|
-2---2- -2---4---0---2---or------------- ---2---2---4---0--2--2-|
-0---0- -2---4---2---2------------------ ---0---2---4---2--2--0-|
------- -0---2---2---0--------0--2--4--- -------0---2---2--0----|
------- ---------0---------------------- ---------------0-------|
            
Submit corrections

comments powered by Disqus
↑ Back to top | Victor E Leo Tabs for Vida Boa. Lyrics for acoustic guitar and electric guitar. Tablatures and chords are parodies/interpretations of the original songs. You may use it for private study, scholarship, research or language learning purposes only