» » »

Borboletas Tabs (ver.2)

Artists:  A B C D E F G H I J K L M N O P Q R S T U V W X Y Z # 

Borboletas Tabs (ver.2)

Victor E Leo
Rating:
0/5 (0 votes)

Hard to play? Try these video lessons and learn fast.
                (no capo version)

(intro)

e|---------------------------------|
B|---------------------------------|
G|--2-4-4-2--4-2---4-4-2---4-4-2---|
D|-4-------4-----4-------4------4--|
A|---------------------------------|
E|---------------------------------|

e|--------------------------------|
B|--------------------------------|
G|-2-2----2-----2-2----2-2--------|
D|----4-2---4-2----4-2-----4-2----|
A|--------------------------------|
E|--------------------------------|

e|--------------------------------|
B|-3-3-2---3-2---3-3-2---3-3-2----|
G|-------2-----2-------2-------2--|
D|--------------------------------|
A|--------------------------------|
E|--------------------------------|

e|-------------|
B|-------------|
G|-------------|
D|-2--2-0-2-0--|
A|-2--2-0-2-0--|
E|-------------|

e|---3-3-3----0-0-0---2-2-2----|
B|---3-3-3----2-2-2---2-3-2----|
G|---0-0-0----2-2-2---4-4-4----|
D|---0----------------4-4-4----|
A|---2------0-------2----------|
E|-3---------------------------|



   Bm                       D
Percebo que o tempo já não passa
                       A     Bm
Você diz que não tem graça amar assim
     Bm                     D
Foi tudo tão bonito, mas voou pro infinito
     A             Bm
Parecido com borboletas de um jardim



E|-------------|
B|-------------|
G|---6h7p6---4-|
D|-7-------7---|
A|-------------|
E|-------------|



Em          G
Agora você volta
     D                         A
E balança o que eu sentia por outro alguém
Em                   G
Dividido entre dois mundos
                A                       Bm
Sei que estou amando mas ainda não sei quem...
           G           D
Não sei dizer o que mudou
     A           Bm
Mas nada está igual
      G                D           A            Bm
Numa noite estranha a gente se estranha e fica mal
   G           D       A             Bm
Você tenta provar que tudo em nós morreu
      G            D
Borboletas sempre voltam
     A             Bm
E o seu jardim sou eu.


(Solo)  Bm, D, A, F#, G, A, Bm

E|-14-14-14--15-15-15--14-14-14-14-14-14--15-15-14-14--|
B|-15-15-15--15-15-15--15-15-15-15-15-15--15-15-15-15--|
G|-----------------------------------------------------|
D|-----------------------------------------------------|
A|-----------------------------------------------------|
E|-----------------------------------------------------|

E|-14-14-14--15-15-15--14-14-14-14-14-14--15-15-14-14--|
B|-15-15-15--15-15-15--15-15-15-15-15-15--15-15-15-15--|
G|-----------------------------------------------------|
D|-----------------------------------------------------|
A|-----------------------------------------------------|
E|-----------------------------------------------------|

E|-14-14-14--15-15-15--14-14-14-14-14-14-12--12-12-12-9---9--9--|
B|-15-15-15--15-15-15--15-15-15-15-15-15-14--14-14-14-10--10-10-|
G|--------------------------------------------------------------|
D|--------------------------------------------------------------|
A|--------------------------------------------------------------|
E|--------------------------------------------------------------|

e|-------------|
B|-------------|
G|-4--4-2-4-2--|
D|-4--4-2-4-2--|
A|-------------|
E|-------------|

e|---3-3-3----0-0-0------------|
B|---3-3-3----2-2-2---2-3-2----|
G|---0-0-0----2-2-2---4-4-4----|
D|---2--------2----------------|
A|---2------0-------2----------|
E|-3---------------------------|



   Bm                       D
Percebo que o tempo já não passa
                       A     Bm
Você diz que não tem graça amar assim
     Bm                     D
Foi tudo tão bonito, mas voou pro infinito
     A             Bm
Parecido com borboletas de um jardim


E|-------------|
B|-------------|
G|---6h7p6---4-|
D|-7-------7---|
A|-------------|
E|-------------|



Em          G
Agora você volta
     D                         A
E balança o que eu sentia por outro alguém
Em                   G
Dividido entre dois mundos
                A                       Bm
Sei que estou amando mas ainda não sei quem...
           G           D
Não sei dizer o que mudou
     A           Bm
Mas nada está igual
      G                D           A            Bm
Numa noite estranha a gente se estranha e fica mal
   G           D       A             Bm
Você tenta provar que tudo em nós morreu
      G            D
Borboletas sempre voltam
     A             Bm
E o seu jardim sou eu.



E|-14-14-14--15-15-15--14-14-14-14-14-14--15-15-14-14--14-|
B|-15-15-15--15-15-15--15-15-15-15-15-15--15-15-15-15--15-|
G|--------------------------------------------------------|
D|--------------------------------------------------------|
A|--------------------------------------------------------|
E|--------------------------------------------------------|
            
Hard to play? Try these video lessons and learn fast. | Correct




comments powered by Disqus
↑ Back to top | Tablatures and chords are parodies/interpretations of the original songs. You may use it for private study, scholarship, research or language learning purposes only