» » »

Wohin Mit Omas Leiche Tabs (ver.1)

Artists:  A B C D E F G H I J K L M N O P Q R S T U V W X Y Z # 

Wohin Mit Omas Leiche Tabs (ver.1)

Vicki Vomit
Rating:
0/5 (0 votes)

Hard to play? Try these video lessons and learn fast.
                

Intro:
E|----------------------|--------------------------|-----|
B|----------------------|--------------------------|-----|
G|----------------------|--------------------------|-----|
D|--0h2--2---2--0h2--2--|--2--0h7--7----7--0h5--5--|--5--| 2x
A|--0h2--2---2--0h2--2--|--2--0h7--7----7--0h5--5--|--5--|
E|--0h0--0---0--0h0--0--|--0--0h5--5----5--0h3--3--|--3--|


Ich bin ständig nur pleite 
Und die Schulden stürzen mich ins Verderben 
Nur von Oma könnte ich erben 
Doch die Oma will nicht sterben 
Die Erbfolge beschleunigen, das war meine Idee 
Das Arsen schmeckt so schön in Omas Frühstückstee 



E|----------------------|--------------------------|-----|
B|----------------------|--------------------------|-----|
G|--------------0h5--5--|--5---------------0h7--7--|--7--|
D|--0h2--2---2--0h5--5--|--5--0h5--5----5--0h7--7--|--7--| 
A|--0h2--2---2--0h3--3--|--3--0h5--5----5--0h5--5--|--5--|
E|--0h0--0---0----------|-----0h3--3----3----------|-----|

E|----------------------|--------------------------|----------------------|
B|----------------------|--------------------------|----------------------|
G|--------------0h5--5--|--5---------------0h7--7--|--7--0h7--7-77777777--|
D|--0h2--2---2--0h5--5--|--5--0h5--5----5--0h7--7--|--7--0h7--7-77777777--| 
A|--0h2--2---2--0h3--3--|--3--0h5--5----5--0h5--5--|--5--0h5--5-55555555--|
E|--0h0--0---0----------|-----0h3--3----3----------|----------------------|

Am Wochenende machte sie die Augen zu 
Bis dahin ließ sich alles prima planen 
Doch dann kam ein Problme 
Das hatt' ich nicht bedacht 
Wie entsorgt man seine Ahnen? 


Verse
E|--------------|--------------|
B|--------------|--------------|
G|--------------|--------------|
D|--2------3/5--|-7-------5/7--| 2x
A|--2------3/5--|-7-------5/7--|
E|--0------1/3--|-5-------3/5--|

Ganz egal was ich versuch, es ist immer das gleiche 
Wo soll ich nur hin mit Omas Leiche? 



E|----------------------|--------------------------|-----|
B|----------------------|--------------------------|-----|
G|----------------------|--------------------------|-----|
D|--0h2--2---2--0h2--2--|--2--0h7--7----7--0h5--5--|--5--| 7x
A|--0h2--2---2--0h2--2--|--2--0h7--7----7--0h5--5--|--5--|
E|--0h0--0---0--0h0--0--|--0--0h5--5----5--0h3--3--|--3--|

Ich hab Oma vergraben im Garten hinter dem Haus 
Doch der Köter von den Nachbarn grub sie wieder aus 
Also dachte ich mir ich mach 'n Feuer 
Damit mach ich sie platt 
Doch es stellte sich heraus 
Dass Oma keinen hohen Brennwert hat.


E|----------------------|--------------------------|-----|
B|----------------------|--------------------------|-----|
G|--------------0h5--5--|--5---------------0h7--7--|--7--|
D|--0h2--2---2--0h5--5--|--5--0h5--5----5--0h7--7--|--7--| 
A|--0h2--2---2--0h3--3--|--3--0h5--5----5--0h5--5--|--5--|
E|--0h0--0---0----------|-----0h3--3----3----------|-----|

E|----------------------|--------------------------|----------------------|
B|----------------------|--------------------------|----------------------|
G|--------------0h5--5--|--5---------------0h7--7--|--7--0h7--7-77777777--|
D|--0h2--2---2--0h5--5--|--5--0h5--5----5--0h7--7--|--7--0h7--7-77777777--| 
A|--0h2--2---2--0h3--3--|--3--0h5--5----5--0h5--5--|--5--0h5--5-55555555--|
E|--0h0--0---0----------|-----0h3--3----3----------|----------------------|


Ich zersägte sie in Stücke und verpackte sie in Tüten 
In der Mülltonne wird sie keiner seh'n 
Doch ein Umweltschützer brachte sie tagsdarauf zurück 
Sie gehört nicht ins duale System. 


Verse
E|--------------|--------------|
B|--------------|--------------|
G|--------------|--------------|
D|--2------3/5--|-7-------5/7--| 4x
A|--2------3/5--|-7-------5/7--|
E|--0------1/3--|-5-------3/5--|

Ganz egal was ich versuch, es ist immer das gleiche 
Wo soll ich nur hin mit Omas Leiche? 
Ganz egal was ich versuch, es ist immer das gleiche 
Wo soll ich nur hin mit Omas Leiche? 



E|----------------------|--------------------------|-----|
B|----------------------|--------------------------|-----|
G|----------------------|--------------------------|-----|
D|--0h2--2---2--0h2--2--|--2--0h7--7----7--0h5--5--|--5--| 2x
A|--0h2--2---2--0h2--2--|--2--0h7--7----7--0h5--5--|--5--|
E|--0h0--0---0--0h0--0--|--0--0h5--5----5--0h3--3--|--3--|



Ökonomisch gesehen war Oma sowas wie 'ne Altlast 
So 'ne Altlast ist 'n echter Balast 
Bist du die wieder los hast 
Also dachte ich mir, was soll die Oma unnütz verderben 
Ich verarbeit sie zu Wurst 
Und dann schick ich sie als Spende zu den Serben.


E|----------------------|--------------------------|-----|
B|----------------------|--------------------------|-----|
G|--------------0h5--5--|--5---------------0h7--7--|--7--|
D|--0h2--2---2--0h5--5--|--5--0h5--5----5--0h7--7--|--7--| 
A|--0h2--2---2--0h3--3--|--3--0h5--5----5--0h5--5--|--5--|
E|--0h0--0---0----------|-----0h3--3----3----------|-----|

E|----------------------|--------------------------|----------------------|
B|----------------------|--------------------------|----------------------|
G|--------------0h5--5--|--5---------------0h7--7--|--7--0h7--7-77777777--|
D|--0h2--2---2--0h5--5--|--5--0h5--5----5--0h7--7--|--7--0h7--7-77777777--| 
A|--0h2--2---2--0h3--3--|--3--0h5--5----5--0h5--5--|--5--0h5--5-55555555--|
E|--0h0--0---0----------|-----0h3--3----3----------|----------------------|

 
Gesagt getan, und ich dachte schon es klappt 
Bis gestern beim Abendbrot 
Meine Frau sagt: "Du probier mal diese Wurst hier 
Die gab's bei Aldi im Sonderangebot." 



Verse
E|--------------|--------------|
B|--------------|--------------|
G|--------------|--------------|
D|--2------3/5--|-7-------5/7--| 2x
A|--2------3/5--|-7-------5/7--|
E|--0------1/3--|-5-------3/5--|


Ganz egal was ich versuch, es ist immer das gleiche 
Wo soll ich nur hin mit Omas Leiche? 
Ganz egal was ich versuch, es ist immer das gleiche 
Wo soll ich nur hin mit Omas Leiche?



Mensch war das'en haufen >Arbeit!
            
Hard to play? Try these video lessons and learn fast. | Correct




comments powered by Disqus
↑ Back to top | Tablatures and chords are parodies/interpretations of the original songs. You may use it for private study, scholarship, research or language learning purposes only