» » »

Vicki Vomit, Die Holde Hilde Chords (ver.1)

Artists:  A B C D E F G H I J K L M N O P Q R S T U V W X Y Z # 

Die Holde Hilde Chords (ver.1)

Vicki Vomit Tabs
 Rating:
4/5 (4 votes)
Die Holde Hilde lessons Tabs too difficult? Try these video lessons and learn fast
                -----------------------------------------------------------------------------
-----------------------------------------------------------------------------
PLEASE RATE MY TABS

Riff Part A: B -----------------------2--0-----|
             G --4--2--0--------1--1--2--0--1--|
             D -----------2--0--2--2--2--0--2--|
             A -----------------2--2--------2--|
             E --------------------------------|

Riff Part B: B -----------------2--2--2--0--2--|
             G --4--2--0--------2--2--2--0--2--|
             D -----------2--0--2--2--2--0--2--|
             A --------------------------------|
             E --------------------------------|

Riff Part C: B --------------------------------|
             G --4--2--0--------4--4--4--4--2--|
             D -----------2--0--4--4--4--4--2--|
             A -----------------2--2--2--2--2--|
             E --------------------------------|

INTRO: 2x Part A  CHORDS: E  E
       1x Part B  CHORDS: A
       1x Part A  CHORDS: E
       1x Part C  CHORDS: B
       1x Part A  CHORDS: E
                              E
Die holde Hilde sagte hör mal her
                           E
Es ist ja nicht so das ich mich beschwer
                              A
Wir wohnen jetzt schon fast n Jahr zusammen
                                 E
Und hier siehts trotzdem aus wie schlendrian

C                       B
Komm lass und durch die Läden laufen
C                          B
Und uns was schönes für die Wohnung kaufen
C                      B
Seitdem hab ich ein Problem

SPOKEN PART:
Denn sie kaufte einen bunten flauschigen Klovorleger
Und eine bunte flauschige Bespannung für den Klodeckel
Und einen flauschigen Klobrillenbezug
Und sie fand das schön

                      E
Die holde Hilde sagte hör mal zu
                              E
So geht es echt mit uns nicht weiter du
                        A
Ich hab geglaubt das es Liebe ist
                               E
Nun stellt sich raus das du im Stehen p**st

C                   B
Wir wollen`s doch gemütlich haben
C                            B
Und du benimmst dich wie ein Pavian
C                      B
Setz dich ab jetz beim Pinkeln hin

SPOKEN PART:
Denn der bunte flauschige Klovorleger
Und die bunte flauschige Bespannung für den Klodeckel
Und der bunte flauschige Klobrillenbezug
Sind schon voller Urin

                      E
Jaja, so sind sie die Frauen
                          E
Schenkt ein Mann ihnen Vertrauen
                        A
Dann wollen sie ihn dressieren
                      E
Sie wollen ihn domestizieren

C                        B
Wenn sie dann merken das geht nicht
C                            B
Dann werden sie fürchterlich kreplich
C                      B
Und so zog Hilde zu Brigitt

SPOKEN PART:
Und den bunten flauschigen Klovorleger
Und die bunte flauschige Bespannung für den Klodeckel
Und den bunten flauschigen Klobrillenbezug
Nahm sie einfach mit

OUTRO: Riff Part A
            
Submit corrections

comments powered by Disqus
↑ Back to top | Vicki Vomit Chords for Die Holde Hilde. Lyrics for acoustic guitar and electric guitar. Tablatures and chords are parodies/interpretations of the original songs. You may use it for private study, scholarship, research or language learning purposes only