» » »

Vice Squad, Saviour Machine Tabs (ver.1)

Artists:  A B C D E F G H I J K L M N O P Q R S T U V W X Y Z # 

Saviour Machine Tabs (ver.1)

Vice Squad Tabs
 Rating:
4/5 (4 votes)
Saviour Machine lessons Tabs too difficult? Try these video lessons and learn fast
                -------------------------------------------------------------------------------
-------------------------------------------------------------------------------


Tempo =146
              
                 (Intro play twice)
  Am	                                             Bb		  

  E  E  T S. T S. E  E  T S. T S.    E  E  T S. T S. Q    Q    Q     
----------------------------------|---------------------------------|
----------------------------------|---------------------------------|
--2--2--x----x----2--2--x----x----|--2--2--x----x----3----3----3----|
--2--2--x----x----2--2--x----x----|--2--2--x----x----3----3----3----|
--0--0--x----x----0--0--x----x----|--0--0--x----x----1----1----1----|
----------------------------------|---------------------------------|

  Am	                                             G
                                                     |----3----|     
  E  E  T S. T S. E  E  T S. T S.    E  E  T S. T S. Q    Q    Q     
----------------------------------|---------------------------------|
----------------------------------|---------------------------------|
--2--2--x----x----2--2--x----x----|--2--2--x----x-------------------|
--2--2--x----x----2--2--x----x----|--2--2--x----x----5----5----5----|
--0--0--x----x----0--0--x----x----|--0--0--x----x----5----5----5----|
----------------------------------|------------------3----3----3----|


Am                       F 
President Joe once had a dream 
                   Em
The world held his hand, gave their pledge 
                    Am           Am G    F Em
So he told them his scheme for a Saviour Machine 

Am                                       F 
They called it the Prayer,its answer was law 
                  Em                               Am                       
Its logic stopped war,gave them food How they adored 
        Am    G  F   Em
till it cried in its boredom 

G               F#
'Please don't believe in me, 
Am         Bb
please disagree with me 
G           F#      Am                 Bb       C   Bb
Life is too easy, a plague seems quite feasible now 
           C   Bb
or maybe a war,   or I may kill you  

Am	Bb	Am	G	x2
all'

   Am	                    F	               G#         Bb	

E-------------------------------------|---------------------|
B-----------------------8---6~~~~-/x\-|---------------------|
G--7^(9)>7---5--4---------------------|-----4--5~~~~-/x\--7-|
D-------------------7~~---------------|-7-------------------|
A-------------------------------------|---------------------|
E-------------------------------------|---------------------|

	 Am	               F	x2             
e-------------------------------------|
B-------------------------------------|     
G--------7^(9)>7----5--7---5----------|
D------------------------------7~~----|
A-------------------------------------|
E-------------------------------------|



Am              G                  F
No don't let me stay, don't let me stay 
              G                Am
My logic says burn so send me away 
                   G                         F
Your minds are too green, I despise all I've seen 
                     G         
You can't stake your lives on a Saviour 
   Am	 Bb	Am	G	x2     G  F#  F  Em 
Machine 


G          F#          Am             Bb
I need you flying, and I'll show that dying 
   G         F#          Am        Bb        C   Bb 
Is living beyond reason, sacred dimension of time 
                 C    Bb
I perceive every sign,   I can steal every 
Am	Bb	Am	G	x2
mind 


   Am	                    F	               G#         Bb	

E-------------------------------------|---------------------|
B-----------------------8---6~~~~-/x\-|---------------------|
G--7^(9)>7---5--4---------------------|-----4--5~~~~-/x\--7-|
D-------------------7~~---------------|-7-------------------|
A-------------------------------------|---------------------|
E-------------------------------------|---------------------|

	 Am	               F	x2             
e-------------------------------------|
B-------------------------------------|     
G--------7^(9)>7----5--7---5----------|
D------------------------------7~~----|
A-------------------------------------|
E-------------------------------------|


Am              G                  F
No don't let me stay, don't let me stay 
              G                Am
My logic says burn so send me away 
                   G                         F
Your minds are too green, I despise all I've seen 
                     G         
You can't stake your lives on a Saviour 
   Am	 Bb	Am	G	x2     G  F#  F  Em 
Machine 


Mick 2007
            
Submit corrections

comments powered by Disqus
↑ Back to top | Vice Squad Tabs for Saviour Machine. Lyrics for acoustic guitar and electric guitar. Tablatures and chords are parodies/interpretations of the original songs. You may use it for private study, scholarship, research or language learning purposes only