» » »

Vice Squad, Living On Dreams Tabs (ver.1)

Artists:  A B C D E F G H I J K L M N O P Q R S T U V W X Y Z # 

Living On Dreams Tabs (ver.1)

Vice Squad Tabs
 Rating:
4/5 (4 votes)
Living On Dreams lessons Tabs too difficult? Try these video lessons and learn fast
                There isn't many Vice Squad tabs so I'm going to try a few 

e|-------------------------------------------|
B|-------------------------------------------|
G|-------------------------------------------|
D|-10-10-10-10-10-10-10-10-10----------------|
A|-10-10-10-10-10-10-10-10-10----------------|
E|--8--8--8--8--8--8--8--8--8----------------|
 PM.............................

e|---------------------------------------------|
B|---------------------------------------------|
G|---------------------------------------------|
D|-10-10-10-10----7-7-7-7-7-7------------------|X4
A|-10-10-10-10----7-7-7-7-7-7------------------|
E|--8--8--8--8----5-5-5-5-5-5------------------|

e|-------------------------------------------------------------|
B|-------------------------------------------------------------|
G|-10-10-10-10-10-10--12-12-12-12-12-12--11-11-11-11-11-11-----|
D|-10-10-10-10-10-10--12-12-12-12-12-12--11-11-11-11-11-11-----|
A|--8--8--8--8--8--8--10-10-10-10-10-10---9--9---9---9---9-----|
E|-------------------------------------------------------------|

                            X2 on the end of the second you play
e|----------------------------|-----------------|
B|----------------------------|-----------------|
G|----------------------------|-----------------|
D|-10-10-10-10----7-7-7-7-7-7-|--5--------------|
A|-10-10-10-10----7-7-7-7-7-7-|--5--------------|
E|--8--8--8--8----5-5-5-5-5-5-|--3--------------|

e|----------------------------------------------|
B|----------------------------------------------|
G|----------------------------------------------|
D|-7-7-7-7-7---3-3-3-3-3---5-5-5-5-5------------| 
A|-7-7-7-7-7---3-3-3-3-3---5-5-5-5-5------------|
E|-5-5-5-5-5---1-1-1-1-1---3-3-3-3-3------------|


e|----------------------------------------------|
B|----------------------------------------------|
G|----------------------------------------------|
D|-7-7-7-7-7---12-12-12-12-12---11-11-11-11-11--|
A|-7-7-7-7-7---12-12-12-12-12---11-11-11-11-11--|
E|-5-5-5-5-5---10-10-10-10-10----9--9--9--9--9--|

play both these parts twice


e|-------------------------------------------------------|
B|-------------------------------------------------------|
G|-------------------------------------------------------|
D|-7-7-7-7-7---9-9-9-9-9---10-10-10-10-10---12-12-12-12--|
A|-7-7-7-7-7---9-9-9-9-9---10-10-10-10-10---12-12-12-12--|
E|-5-5-5-5-5---7-7-7-7-7----8--8--8--8--8---10-10-10-10--|

e|---------------------------------------------|
B|---------------------------------------------|
G|---------------------------------------------|
D|-10-10-10-10----7-7-7-7-7-7------------------|X4
A|-10-10-10-10----7-7-7-7-7-7------------------|
E|--8--8--8--8----5-5-5-5-5-5------------------|

then you start from the beginning again
and that"s pretty much the whole song
            
Submit corrections

comments powered by Disqus
↑ Back to top | Vice Squad Tabs for Living On Dreams. Lyrics for acoustic guitar and electric guitar. Tablatures and chords are parodies/interpretations of the original songs. You may use it for private study, scholarship, research or language learning purposes only