» » »

Freedom Begins At Home Tabs (ver.1)

Artists:  A B C D E F G H I J K L M N O P Q R S T U V W X Y Z # 

Freedom Begins At Home Tabs (ver.1)

Vice Squad
Rating:
0/5 (0 votes)

Hard to play? Try these video lessons and learn fast.
                Well there seems to be a lack of Vice Squad tabs so here is another one

e|------------------------------------------|
B|------------------------------------------|
G|------------------------------------------|
D|-------10---------------------------------|Let note ring out x4
A|-------10---------------------------------|
E|--------8---------------------------------|

e|----------------------------------------------------|
B|----------------------------------------------------|
G|----------------------------------------------------|
D|--2-2-2-2-2-----------10----------------------------| repeat 3x
A|--2-2-2-2-2-----------10----------------------------|
E|--0-0-0-0-0------------8----------------------------|
    *********
    [muted]
after the third time you play
e|----------------------------------------------------|
B|----------------------------------------------------|
G|----------------------------------------------------|
D|---7-7-7/5-5-5/7-7-7--------------------------------|
A|---7-7-7/5-5-5/7-7-7--------------------------------|
E|---5-5-5/3-3-3/5-5-5--------------------------------|

you play both these parts twice after you play these two parts twice
then follows

e|----------------------------------------------------------------|
B|----------------------------------------------------------------|
G|----------------------------------------------------------------|
D|--2-2-2-2-2----7-7-7-7-7----10-10-10-10-10----9-9-9-9-9---------| 
A|--2-2-2-2-2----7-7-7-7-7----10-10-10-10-10----9-9-9-9-9---------|
E|--0-0-0-0-0----5-5-5-5-5-----8--8--8--8--8----7-7-7-7-7---------|

e|---------------------------------------------------------------------|
B|---------------------------------------------------------------------|
G|---------------------------------------------------------------------|
D|--2-2-2-2-2----7-7-7-7-7----10-10-10-10-10----9-9-9-9-9----5-5-5-5-5-| 
A|--2-2-2-2-2----7-7-7-7-7----10-10-10-10-10----9-9-9-9-9----5-5-5-5-5-|
E|--0-0-0-0-0----5-5-5-5-5-----8--8--8--8--8----7-7-7-7-7----3-3-3-3-3-|

e|----------------------------------------------|
B|----------------------------------------------|
G|----------------------------------------------|
D|-----10-10-10-10-10----9-9-9-9-9----5-5-5-5-5-| 
A|-----10-10-10-10-10----9-9-9-9-9----5-5-5-5-5-|
E|------8--8--8--8--8----7-7-7-7-7----3-3-3-3-3-|

that's pretty much the whole song  
            
Hard to play? Try these video lessons and learn fast. | Correct




comments powered by Disqus
↑ Back to top | Tablatures and chords are parodies/interpretations of the original songs. You may use it for private study, scholarship, research or language learning purposes only