» » »

My Heart To The Wind Mi Corazon Al Aire Tabs (ver.1)

Artists:  A B C D E F G H I J K L M N O P Q R S T U V W X Y Z # 

My Heart To The Wind Mi Corazon Al Aire Tabs (ver.1)

Vicente Amigo
Rating:
5/5 (3 votes)

Hard to play? Try these video lessons and learn fast.
                My Heart to the Wind (Mi Corazon al Aire)
Vicente Amigo
Time Signature:3/4
A beautiful piece of music

e|----------------------------------------------------------------|
B|-----4---5---------------------------4---5----------------------|
G|---4---4---4------3---4--3---------4---4---4------3---4--3------|
D|----------------1---1---------------------------1---1-----------|
A|----------------------------------------------------------------|
E|-4------------3------------------4------------3-----------------|

e|------------------------------------------|
B|-----4---5-------------4------------2-----|
G|---4---4---4--------3----3------1-----1---|
D|-----------------4----4-------2---2-------|
A|------------------------------------------|
E|-4-------------2------------0-------------|

e|--------------------------------|
B|-------0-----------0------------|
G|-----3---3-------3---3----------|
D|---4-------4---4-------4--------|
A|-2-----------2------------------|
E|--------------------------------|

e|----------------------------------------------------------------|
B|-----4---5---------------------------4---5----------------------|
G|---4---4---4------3---4--3---------4---4---4------3---4--3------|
D|----------------1---1---------------------------1---1-----------|
A|----------------------------------------------------------------|
E|-4------------3------------------4------------3-----------------|

e|---------0-----------0-----------0-----------0-|
B|-----3-----------3-------------0-----------0---|
G|-------4-----------4---------6-----------6-----|
D|---4-----------4-----------6-----------6-------|
A|-0-----------0-----------0-----------0---------|
E|-----------------------------------------------|

e|---------0-------------0-------------0------------0----|
B|-------4---4---------4---4---------3---3--------3---3--|
G|-----5-------------5-------------4------------4--------|
D|---4-------------4-------------3------------3----------|
A|-0-------------0-------------0------------0------------|
E|-------------------------------------------------------|

e|-------|
B|---2---|
G|---2---|
D|---2---|
A|---0---|
E|-------|
            
Hard to play? Try these video lessons and learn fast. | Correct




comments powered by Disqus
↑ Back to top | Tablatures and chords are parodies/interpretations of the original songs. You may use it for private study, scholarship, research or language learning purposes only