>
 >
Morente

Morente Guitar Tabs

Vicente Amigo - Morente chords, tabs, tablatures, lyrics

Guitar lessons | Add/correct | Request | Top 50 tabs Artists:  A B C D E F G H I J K L M N O P Q R S T U V W X Y Z 0-9

Morente Guitar Tabs – Vicente Amigo

CD, Sheet music, Poster

Do you like Morente? Share with your friends now
Tabs
this is a flamenco song quite complex but i think it's 100% correct.

E||----------------------------|--------------------0---------||
B||-----------0-------0--------|----------0-------0-----------||
G||*--------4-------4----------|--------3-------3-----3------*||
D||*------2-------2------------|------1-------1--------------*||
A||-----4-------4--------------|----2-------2-----------------||
E||---0------------------------|--2---------------------------||



--------2/4h0-7h4-4/2-2h0-----|--------0h3h0-7h3-3/2-2h0------|
------0-----------------------|--------------------------5----|
------------------------------|------3------------------------|
----2-------------------------|----2--------------------------|
------------------------------|-------------------------------|
--0---------------------------|--0----------------------------|



------------0-----0----------0---|--------0-----------------|
----------4---4------4---4-----4-|----4-----4---4-----------|
--------3-------3------3---3-----|--3---3-3---3----3--------|
------1--------------------------|--------------------------|
----1----------------------------|--------------------------|
--3---------------3----------3---|--------3-----------------|



|-----------2---2h0-----------------|--------0-------------------------|
|-------4-----4-----4h0-2h0---------|----0h2---2---0-------------------|
|*----4---4-----------------4-----1-|--3---------3---1h0-3-1-1---------|
|*----------------------------------|--------------------2-----4-4h3h4-|
|-------------------------------4---|--------------------2-------------|
|---4-------------------------2-----|--------------------0-------------|



-----------------------------|--0-----------0--------0--|-------------||
-----------------------4-----|--------4--------4--------|--4----------||
--------------------3-----3--|-----3-----3--------3-----|-----3------*||
--2h1h0-4h2-2h1--1-----------|--------------------------|------------*||
-----------------------------|--1-----------------------|-------------||
-----------------------------|--------------3--------3--|-------------||



--0-------------------------|-------0----------0-2h3-0----|
-----4----4h2h4-1-----------|--1h-3------1h-0-------------|
--------3----------------0--|-----------------------------|
----------------------2-----|-----------------------------|
-------------------0--------|---------3----------------0--|
--3-------------------------|-----------------------------|



-----------------------0h2-5h3-|--0--------0h1h0-----------|
-----1-----------0h1h3---------|------------------------0--|
--------2----0h2---------------|--------2------------1-----|
--2--------4-------------------|-----3---------------------|
-------------------------------|---------------------------|
-------------------------------|------------------4--------|



--0h1h0---------0-2-3-------3h2-|--3-7---------7h5h7-8/12-12-----------|
--------------1-----------0-----|------------5---------------10--------|
------------0----------0--------|----------5--------------------9----9-|
----------2---------------------|--------5------------------------10---|
--------0-----------3-----------|--------------------------------------|
--------------------------------|------5-------------------------------|




-----12-10-10-8-7--------0-------------|-------------------|
--10--------------10-8-7---3h0---------|-------------------|
-------------------------------0-------|--3----------------|
---------------------------------2h0---|--2----------------|
-------------------------------------4-|--3----------------|
---------------------------------------|-------------------|




----------0---2h0-------------0-3-|--2h0-------------0-0---3h2h0-----|
--------0---4-----3---------3-----|------3-1-----2/3-----5-1-----3-1-|
------0-------------------0-------|------------0-----------0---------|
--2-4---------------4---4---------|----------4-----------------------|
----------------------2-----------|----------------------------------|
----------------------------------|----------------------------------|




--0----------------|----------0-----3h0-----0---------|
-------------------|------1-4---4-------4-----4-------|
--0----------------|----0---------5-------5-----5-3h0-|
-------------------|----------------------------------|
-------------------|--3-------------------------------|
-------------------|----------------------------------|



--------------------------------|--------------------------------|
--------------------------------|------------------------0---0h1h|
--------------------------------|----------0---------------------|
--------4-------4-------4-------|----0h4h0-------0-----4---4-----|
--6h5-----5h6h5---5h6h5---5h6h5-|------------3h2---3h2-----------|
--------------------------------|--------------------------------|



-----------------------|--------------------------------|
--0-------0------------|----0---0---0-----0-----0-------|
--------5--------------|------4-------4-----4---------5-|
------4----------------|--2-------2-----2-----2-----2---|
----2------------------|--------------------------------|
-----------------------|--------------------------------|



--------2-------2-----0-----2---|--------0-----0------------------|
----0-------2-----2-----2-------|----2-----0----------3-----2-----|
----------3---3-----3-----3-----|--3---3-----0----0-----0-----0---|
--0-----------------------------|-------------------4-----4-----4-|
--------------------------------|---------------------------------|
------2-------------------------|---------------------------------|



------0--------------------0-----0---|----1-----0------1-----3h0-----0-|
--2h3---3h2------3-----------0-----0-|------0------0-----0h3-----4h3---|
-------------0-----0-----------------|--1-----1------1-----------------|
---------------4-----0---------------|---------------------------------|
-----------------------5-------------|---------------------------------|
-------------------------0-----0-----|---------------------------------|



-----------------------0------2-|------5-----3-----3------3-----3-|
----3------1-----3--------1-----|--1------------------0-----0-----|
-------0-----0-----0--------0---|----0---0-----0--------5-----5---|
--------------------------------|---------------------------------|
--0------0-----0-----0----------|----------3-----3----------------|
--------------------------------|---------------------------------|



------3-----------2-5h3h2-3h2----|----------2-----2--------0-3h2h0-|
--0-------0-----0----------------|--------0-----0--------0---------|
----5---5---5-5----------------0-|------0-----0--------0-----------|
---------------------------------|--0h4--------------4-------------|
---------------------------------|---------------------------------|
---------------------------------|---------------------------------|



--2---0--------------0-----------|-------------2h0-------0---------|
-------------------0---3h1h0-----|-----------2---------4/--5-----3-|
---------0-------0-----------2h0-|-------0-3-------3---------2-----|
-----------0h2h4-----------------|--4--4-------------4---------3---|
----3----------------------------|---------------------------------|
---------------------------------|---------------------------------|



----------0--------------------------|-------------------------2--------|
------2h3---3-----1-----0------0-----|--1-----------0--1---0--------2---|
--2-----------2-----0------0-----0---|----0-------4---------------3---3-|
----3-----------3-----2------2-----2-|------2---2--------2--------------|
-------------------------------------|--------3-------------------------|
-------------------------------------|-----------------------2----------|



--2-----0-----2---------0-----0-|-----------------------0------------|
----2-----2---------2-----0-----|-------3-----2-----2h3---3h2------3-|
------3-----3-----3---3-----0---|---0-----0-----0--------------0-----|
--------------------------------|-----4-----4-----4--------------4---|
--------------------------------|------------------------------------|
--------------------------------|------------------------------------|



----------0-----0-----1-----0----|----1-----3h0-----0--------------|
------------0-----0-----0------0-|------0h3-----4h3-----3------1---|
--0-----------------1-----1------|--1----------------------0-----0-|
----0----------------------------|---------------------------------|
------5--------------------------|--------------------0------0-----|
--------0-----0------------------|---------------------------------|



----------0------2-----5-----3---|----3------3-----3-----3---------|
----3--------1-----1-------------|-------0-----0-----0-------0-----|
------0--------0-----0---0-----0-|---------5-----5-----5---5---5-5-|
---------------------------------|---------------------------------|
--0-----0------------------3-----|--3------------------------------|
---------------------------------|---------------------------------|



----2-5h3h2h3h2------------2-----|--2--------0-3h2h0-2---0--------|
--0----------------------0-----0-|---------0----------------------|
-----------------0-----0-----0---|-------0------------------0-----|
-------------------0h4-----------|-----4----------------------0h2-|
---------------------------------|---------------------3----------|
---------------------------------|--------------------------------|



--------0-------------------------|----------------------|
------1---4h1h0---4h--0-------0---|----------------------|
----0-----------5---5---2h0h2---2h|--0-------------------|
--4-------------------------------|----3h2-3-------------|
----------------------------------|--------3-------------|
----------------------------------|--------1-------------|

------------------------------|--------------------------|
----------------0h1h0---------|-----0--------------------|
------------0h2-------2-0-----|--------3h-0--------------|
--------2h3-------------2-----|--2-----------4h-2h-0-----|
------3-----------------2-----|-----------------------3--|
--0h1-------------------0-----|--------------------------|



---------------------------|----7-------7---------|----------------------|
-------0-------------------|--4-------4-----------|-------1--0h1h0h1h0h1-|
--3----0-----------------5-|--------5-------------|----------------------|
--2----2--------1------4---|------4---------------|----------------------|
--3----3----3h2---3h2------|----------------------|----------------------|
---------------------------|----------------------|----------------------|



|-----7-7-7-7---5-5-5-5---3h5-5-5---|--3-3-3-3---2h3-3-3---3-3h5-3---2-|
|-----------------------------------|----------------------------------|
|*----------------------4-----------|----------0---------5-------------|
|*----------------------------------|----------------------------------|
|---0---------3-------------------3-|------------------------------2---|
|-----------------------------------|----------------------------------|



--2-2-2---2-2-2-2---2-2-2-2---2-2-|--2-2---2-2-2-2--------------||
--------3/1-------0---------------|----------------------0h-1---||
----------------------------2h4h2-|------0---------------------*||
----------------------------------|----------------4-----------*||
----------------------------------|-----------------------------||
----------------------------------|-----------------------------||



---12-12-12-12--10-10-10-10--8-8-8-8---|-7-7-7-7--5-5-5-5--7-7-7-7--7-|
---------------------------------------|------------------------------|
-9-----------------------------------0-|--------------------------5---|
--------------10-----------7-----------|--------4---------------------|
---------------------------------------|-----------------7------------|
---------------------------------------|------------------------------|



--7-7-7---7-7-7-7---0-0-0-0---2-2-|--2-2---3-3-3-3---7-7-7-7---5-5-5-|
--------0-------------------------|------1---------------------------|
----------------------------0-----|----------------------------------|
----------------------------------|----------------------------------|
------------------3---------------|----------------0---------3-------|
----------------------------------|----------------------------------|



--5---3h5-5-5---3-3-3-3---2h3-3-3-|----3-3h5h3---2-2-2-2---2-2-2-2---|
----0-----------------------------|----------------------3h1-------0-|
------------------------0---------|--5-------------------------------|
----------------------------------|----------------------------------|
--------------3-------------------|------------2---------------------|
----------------------------------|----------------------------------|



--2-2-2-2---0--------------------|------0---2h0-3h2-5h3-----7-----5-|
---------------0-----------0h1h0-|--3h1---4-------------0-----0-----|
----------2------2h0---0h2-------|------------------------5-----5---|
---------------------4-----------|----------------------------------|
---------------------------------|----------------------------------|
---------------------------------|----------------------------------|



------3-----0--------------------|----0---0h1h0---0-4h1h0h1-7h5h4h5-|
--0-----0-----0-------1h0--------|--0---3-------3-------------------|
----5-----5-----5---0----------1-|----------------------------------|
------------------2--------2h3---|----------------------------------|
---------------------------------|----------------------------------|
---------------------------------|----------------------------------|



-8h7-7----7-12-12-12-10-12-10h8-8-7-------|-5----3h2---------2h3-0-------|
-------10---------------------------12h10-|-5----------------------------|
------------------------------------------|-5------------3h0-----------0-|
------------------------------------------|-7--------4---------------2---|
------------------------------------------|-7----------4-----------0-----|
------------------------------------------|-5----------------------------|



---0h2-----------0---------------|---------0---2h0-3h-2h0---0-----|
-1-----3-------3-----1h3h1h0-1h3-|-1h0h3h1---4-----1------3---3h1-|
-------------2-------------------|-----------------0--------------|
-----------0---------------------|--------------------------------|
-------------------3-------------|--------------------------------|
---------2-----------------------|--------------------------------|



----------------------------------|--------------------------0-----|
--0-------------------------------|-----------------------------4h-|
----2h0---0-----------------------|--------------------------------|
--------4---4h2---0---------------|--------------------0-----------|
----------------3---3h2-------0---|------0-------0h2h3---3h2-------|
------------------------3h2h3---3h|--2h3---3h2h3-------------------|

--------0-----------0-----|--------0------------|
-----0-----4h----0-----4h-|-----0-----4h---0----|
--5-----------5-----------|--5-----------5------|
--------------------------|---------------------|
--------------------------|------------------0--|
--------------------------|---------------------|



|-----------2---2h0-----------------|--------0-------------------------|
|-----0h4h0---4-----4h0-2-0---------|----0h2---2---0-------------------|
|*--------------------------4-----1h|--3---------3---1h0-3-1-----------|
|*----------------------------------|--------------------2---6h4-4h3-4-|
|-------------------------------4---|--------------------2-------------|
|---4-------------------------2-----|--------------------0-------------|



-----------------------------|--0-----------0--------0--|-------------||
-----------------------4-----|--------4--------4--------|--4----------||
--------------------3-----3--|-----3-----3--------3-----|-----3------*||
--2h1h0-4h2-2h1--------------|--------------------------|------------*||
-----------------6-----------|--1-----------------------|-------------||
-----------------------------|--------------3--------3--|-------------||



--0-------------------------|-------0----------0-2-3-0----|
-----4----4-2-4-1-----------|--1--3------1--0-------------|
--------3----------------0--|-----------------------------|
----------------------2-----|-----------------------------|
-------------------0--------|---------3----------------0--|
--3-------------------------|-----------------------------|



-----------------------0-2-5-3-|--0--------0h1h0-----------|
-----1-----------0-1-3---------|------------------------0--|
--------2----0-2---------------|--------2------------1-----|
--2--------4-------------------|-----3---------------------|
-------------------------------|---------------------------|
-------------------------------|------------------4--------|



--0h1h0---------0-2-3-------3-2-|--3-7---------7h5h7-8/12-12-----------|
--------------1-----------0-----|------------5---------------10--------|
------------0----------0--------|----------5--------------------9----9-|
----------2---------------------|--------5------------------------10---|
--------0-----------3-----------|--------------------------------------|
--------------------------------|------5-------------------------------|



-----12-10-10-8-7--------0-------------|-------------------|
--10--------------10-8-7---3h0---------|-------------------|
-------------------------------0-------|--3----------------|
---------------------------------2h0---|--2----------------|
-------------------------------------4-|--3----------------|
---------------------------------------|-------------------|



---------------------------------|--------------------------0--|
---------------------------------|-----------------------3-----|
------0---0---0---0----0---------|--------------2--------------|
--2h4---5---5---5---5----5h4h2h0-|------0----4--------4--------|
---------------------------------|--4h5---5--------0-----------|
---------------------------------|-----------------------------|



-----2h-0--7h-5-----------|------3-10h8h7-------------------|
--1-----------------------|--0h3----------10-8h7-7----------|
-----------------------2--|------------------------------0--|
--------------------0-----|---------------------------8-----|
--------------------------|------------------------9--------|
-----------------3--------|---------------------------------|



--------------------0-----|------------------------|--0-------------0--||
--8h-7-----------8-----7--|---------------8--------|--0--------0-------||
--------------0-----------|------------8-----11----|-------------------||
-----------8--------------|--------10--------------|--2----------------||
--------9-----------------|-----9------------------|--2----------------||
--------------------------|--8---------------------|--0----------------||





Comments


Popular Vicente Amigo tabs & chords
Callejon De La Luna Tabs
Cordoba Tabs
Demi Corazon Al Aire Tabs
El Mandaito Tabs
Gitano De Lucia Tabs
Mensaje Tabs
Morao Tabs
My Heart To The Wind Mi Corazon Al Aire Tabs
Tio Arango Tabs


Song lyrics



↑ Back to top | Tablatures and chords are parodies/interpretations of the original songs. You may use it for private study, scholarship, research or language learning purposes only
© 2014 AZChords.com Contact us | Privacy policy | DMCA | Add/correct tabs | Request tabs | Top 50 tabs