>
 >
Mensaje

Mensaje Guitar Tabs

Vicente Amigo - Mensaje chords, tabs, tablatures, lyrics

Guitar lessons | Add/correct | Request | Top 50 tabs Artists:  A B C D E F G H I J K L M N O P Q R S T U V W X Y Z 0-9

Mensaje Guitar Tabs – Vicente Amigo

CD, Sheet music, Poster

Do you like Mensaje? Share with your friends now
Tabs
mensaje                                     


Piste 1



                                                                               
E||-----------------|-----------------|---------------------|----------------||
B||---5----------3--|--6----5------2--|--5h3h6-3----3-------|----------------||
G||*--4-------------|-----------------|------------------6--|----4----------*||
D||*--3-------------|-----------------|---------------------|---------------*||
A||---2-------------|-----------------|---------------------|----------------||
E||---0-------------|-----------------|---------------------|----------------||


                                                                             
------------------|----0--0-----------|-----------------|-------------------|
------------------|----0--0-----------|-----------------|-------------------|
-----5------------|----0--0-----------|----4------------|----4--------------|
-------------3----|----3--3--5--7-----|--------------3--|-------5/-7--7--7--|
----------7-------|-------------------|-----------7-----|-------------------|
--5---------------|----------------3--|-----------------|-------------------|


                                                                   
----------------|--------1------------------|-----0h1h3-1--0------|
----------------|------1---1----------------|-----0---------------|
----------------|----2-------2--------------|-----2---------------|
--7--7/---------|--3-----------3------------|--3------------------|
----------------|----------------3----------|---------------------|
----------------|------------------1--------|--------------0------|


                                                                              
-------0--0--0--0--|------------------|----0--0-----------|------------------|
-------0--0--0--0--|------------------|----0--0-----------|------------------|
-------1--1--1--1--|-----5------------|----0--0-----------|----4----4--------|
--3----3--3--3--3--|-----------3------|----3--3--5--7-----|---------------3--|
-------2--2--2--2--|--------7---------|-------------------|------------7-----|
-------0--0--0--0--|--5---------------|----------------3--|------------------|


                                                                           
-----------------|-----5h-7--5--3-----|--5--3----------|-----0h-1--0------|
-----------------|-----3-----------7--|----------------|-----0------------|
-----------------|-----4--------------|----------------|-----2------------|
------5--7----7--|--3-----------------|----------------|--3---------------|
-----------------|--------------------|-----3----------|------------------|
-----------------|--------------------|----------------|-----------0------|


                                                                      
--------------0---0-1-3-|--5-3-1h-0---0----------|-------1-----------|
------------0---3-------|-----------3---3h1h0----|-------1h-3--1--0--|
----------1-------------|---------------------2--|-------2-----------|
----0h2h3---------------|------------------------|----3--------------|
------------------------|------------------------|-------------------|
------------------------|------------------------|-------------------|


                                                                           
-------1--------------|------0--------|------0--0----0--|-----------------|
---------1------------|------0--------|------0--1----1h-|--0--0-----------|
--2--4-----4-4h2h0----|------1--------|------1--2----2--|-----2--------2--|
----------------------|------3--------|------0--2----2--|-----2--------3--|
----------------------|------2--------|------2--0----0--|-----0--------3--|
----------------------|------0--------|------0----------|--------------1--|


                                                                        
---------------|-------0--0--0--0--|--0----0--0----0--|----------------|
---------------|-------0--0--0--0--|--0----0--1----1h-|--0-------------|
--2------------|-------1--1--1--1--|--1----1--2----2--|-----2----------|
--3------------|-------3--3--3--3--|--0----0--2----2--|-----3----------|
--3------------|-------2--2--2--2--|--2----2--0----0--|-----3----------|
--1h-----------|--0----0--0--0--0--|--0----0----------|-----1----------|


                                                                              
--------------|--0------------------|----7h-8--7--------|-----------------5--|
--------------|----0----------------|----6--------8--6--|-----------5--------|
--------------|------1--------------|----5--------------|-----0--------7-----|
--------------|--------3------------|-------------------|--------------------|
--------------|----------2----------|-------------------|-----------------2--|
--------------|------------0--------|-------------------|--3-----5-----------|


                                                              
----5--2--3------|------------------|------------------------|
-----------------|------1--1--1--1--|------------------5h-6--|
-----------------|------0--0--0--0--|------------4-5-7-------|
-----------------|------2--2--2--2--|------3-5-7-------------|
-----------------|------3--3--3--3--|--3-7-------------------|
-----------------|------------------|------------------------|


                                                               
---------------------|--------------------|-------1--1--1--1--|
-----5h-8--8-6-5--6--|--5--5/-3--3/-1-----|-------1--1--1--1--|
--7------------------|-----------------4--|--2----2--2--2--2--|
---------------------|--------------------|-------3--3--3--3--|
---------------------|--------------------|-------------------|
---------------------|--------------------|-------------------|


                                                                              
-----5h-7--5--------|----3--3--3-------|-----5-----3------|------0--0--0--0--|
-----3--------6--3--|----3--3--3----5--|--6-----6---------|------5--5--5--5--|
-----4--------------|----4--4--4-------|------------------|------4--4--4--4--|
--0-----------------|----3--3--3-------|------------------|------5--5--5--5--|
--------------------|----5--5--5-------|-----------3------|------3--3--3--3--|
-----------------3--|------------------|------------------|------------------|


                                                                         
--------0--------------|--------------------5-7-|--8/-12--10--10h-8--8/-|
------3---6-3-5--6--5--|--------------5-6-8-----|-----------------------|
----5------------------|----7h5---5-7-----------|-----------------------|
--5--------------------|--------9---------------|-----------------------|
-----------------------|------------------------|-----------------------|
-----------------------|------------------------|-----------------------|


                                                                  
--7----------------|------12--10--10/-8--8/-|--7--------7--8--7--|
-----10----10/-----|--10--------------------|-----10-------------|
-----------9/------|------------------------|--------------------|
-----------10/-----|------------------------|--------------------|
-----------8/------|------------------------|--------------------|
-------------------|------------------------|--------------------|


                                                                
--10-8-7-8-7-8h7----7/-|--5---------------|--5h-8--7--5h-8--5/-|
-----------------------|-----8---------8--|--------------------|
-----------------------|------------7-----|--------------------|
-----------------------|------------------|--------------------|
-----------------------|------------------|--------------------|
-----------------------|------------------|--------------------|


                                                                                
--3--------------3h-|--7--5-----3----3--|--3----3--3--3--3--|-----3------------|
-----6--------3-----|--------6-------5--|--5----5--5--5--5--|--5-----6---------|
-----------4--------|----------------4--|--4----4--4--4--4--|-----------5------|
--------3-----------|----------------5--|--5----5--5--5--5--|------------------|
--------------------|-----------3----3--|--3----3--3--3--3--|------------------|
--------------------|-------------------|-------------------|------------------|


                                                                        
----------------|----------------|------1---------|--------------------|
------6---------|------5---------|------1---------|--0-----0-----------|
---------3------|---------2------|------2---------|--0-----0--0--------|
----------------|----------------|------3---------|--3-----3--3--------|
----------------|----------------|------3------3h-|-----2-----2h-0-----|
----------------|----------------|------1---------|-----------------0--|


                                                                               
----0-------------|-------------------|--------0-----------|------------------|
------------------|-------------------|--------------------|------------------|
---------0--------|-----------0----0--|-----------0--------|-----------0------|
---------3--------|-----------3----3--|-----------3--------|-----------3------|
---------3h-2--3--|--2--3--2--0----0--|-----------3h-2--3--|--2--5--3--2------|
------------------|-------------------|--3--1--------------|------------------|


                                                                 
--------------------|------------------|------------------------|
--------------------|------------------|------------------------|
--------------------|------------------|----0-0---0-0-----0-0---|
--------------3-----|--------3------3--|----3-3---3-3-----3-3---|
--0-----0h-2-----3--|--2--3--0------0--|----3-3-2-----2h0-----0-|
-----3--------------|------------------|------------------------|


                                                                              
--------------------0-----|--------------------------|-----------------------|
--------------------------|--------------------------|-----------------------|
----------------------0-0-|----0-0-----0-0-----0-0---|-----------------------|
----3-3-----3-3-------3-3-|----3-3-----3-3-----3-3---|----3-3-----3-3--------|
----0-0-----0-0-------3-3-|--3-----3h2-----2h0-----0-|----0-0-----0-0--------|
--3-----3h1-----1h3-------|--------------------------|--3-----3h1-----1h0----|


                                                                       
--0------------|--------0------|-------0--0-----0--|--0----0--0----0--|
--0------------|--------0------|-------0--0-----0--|--0----0--1----1--|
--1------------|--------1------|-------1--1-----1--|--1----1--2----2--|
--3------------|--------3------|-------3--3--0--3--|--3----3--2----2--|
--2------------|--------2------|-------2--2-----2--|--2----2--0----0--|
--0------------|--------0------|--0----0--0-----0--|--0----0----------|


                                                                              
--0--------------|----------3--3--3--|--3----3-----------|-------------------|
--1--------------|----------5--5--5--|--5----5--5--5--5--|--5--5--5--6----6--|
--2------4----4--|--4--4----4--4--4--|--4----4--6--6--6--|--6--6--6--7----7--|
--2------3----3--|--3--3----5--5--5--|--5----5--5--5--5--|--5--5--5--7----7--|
--0------5----5--|--5--5----3--3--3--|--3----3--7--7--7--|--7--7--7--5----5--|
---------3----3--|--3--3-------------|-------------------|-------------------|


                                                                    
------------------0-|--1h0------------------|--------0----0--0--0--|
--6--6----------3---|------3h1h0------------|------0------0--0--0--|
--7--7--------2-----|------------2h1--------|----1--------1--1--1--|
--7--7------3-------|--3-------------3------|----------0--0--0--0--|
--5--5--------------|-----------------------|-------------2--2--2--|
--------------------|------------------0----|----------------------|


                                                                               
------0----------|-----0--0----------|-----------3--3--3--|--3----3-----------|
------0--1----1--|--1--0--0----------|-----------5--5--5--|--5----5--5--5--5--|
------1--2----2--|--2--0--0--4----4--|--4--4--4--4--4--4--|--4----4--6--6--6--|
------0--2----2--|--2--0--0--3----3--|--3--3--3--5--5--5--|--5----5--5--5--5--|
------2--0----0--|--0--------5----5--|--5--5--5--2--2--2--|--3----3--7--7--7--|
-----------------|-----------3----3--|--3--3--3-----------|----------5--5--5--|


                                                                                
--------------------|------------------|------8---8---8---8/--|----------0--0--|
--5--5--5--6--6--6--|--6--6--6--6------|------10--10--10--10/-|----------8--8--|
--6--6--6--7--7--7--|--7--7--7--7------|------8---8---8---8/--|----------0--0--|
--5--5--5--7--7--7--|--7--7--7--7------|------9---9---9---9/--|----------9--9--|
--7--7--7--5--5--5--|--5--5--5--5------|----------------------|----------7--7--|
--5--5--5-----------|------------------|----------------------|----------------|


                                                                
--0--------6--6--|------------------|----0-----5h0-----0-----0-|
--8--------8--8--|------------------|--0---4-------4-----4-----|
--0--------6--6--|----------------5-|--------5-------5-----5---|
--9--------7--7--|--------------3---|--------------------------|
--7--------------|----------0h6-----|--------------------------|
-----------------|------------------|--------------------------|


                                                                          
--------------------|------0--------|------0--0----0--|--0--0--0---------|
--3h1h0-------------|------0--------|------0--1----1--|--1--1--1---------|
--------2-----------|------1--------|------1--2----2--|--2--2--2--2------|
----------0h3-------|------3--------|------0--2----2--|--2--2--2--3------|
--------------------|------2--------|------2--0----0--|--0--0--0--3------|
--------------------|------0--------|------0----------|-----------1h-----|


                                                                        
---------------|------0--0----0--|--0----0--0----0--|--0---------------|
---------------|------0--0----0--|--0----0--1----1--|--1---------------|
---------------|------1--1----1--|--1----1--2----2--|--2--2-----2------|
---------------|------2--2----2--|--0----0--2----2--|--2--3-----3------|
---------------|------2--2----2--|--2----2--0----0--|--0--3-----3------|
--------0------|------0--0----0--|--0----0----------|-----1h-0--1------|


                                                             
---------------|------0--------|--------3-------------3-----|
---------------|------0--------|--5h-6-----6--5--3------3---|
---------------|------1--------|--3-----------------6-----6-|
---------------|------3--------|--3-------------------------|
---------------|------2--------|----------------------------|
--------0------|------0--------|----------------------------|


                                                           
-------------------|-------------------|------5--5--5--5--|
----------------3--|--5h-3/5-6--8------|------6--6--6--6--|
--6h-3----3h-6-----|-------------------|------7--7--7--7--|
-------------------|------------0------|------7--7--7--7--|
-------------------|-------------------|------5--5--5--5--|
-------------------|-------------------|------------------|


                                                                                
----1---------------------|------------0-1-3-5-3-1-0-|-------------------------|
------1-------------------|------0-1-3---------------|--3-1-0------------------|
--4-----4-4h2h0---0-------|----0---------------------|--------2-0--------------|
----------------3---3-----|--3-----------------------|------------3-2-0--------|
------------------------2-|--------------------------|------------------3-2-3--|
----------------------3---|--------------------------|-------------------------|


                                                          
------0--------|-------------------|-------------12--10--|
------1--------|--5h-6--3--6----5--|----11---------------|
------0--------|--4----------------|----------9----------|
------2--------|--3----------------|---------------------|
------3--------|-------------------|---------------------|
---------------|--3----------------|---------------------|


                                                                       
--8---10h8-7h-10--10h-8--|----0------7h-5-----|--5h7-7h8-8/10-10------|
------------------10-----|-----------6-----9--|-----------------------|
-------------------------|-----------5--------|-----------------------|
-------------------------|-----------0--------|-----------------------|
------------------0------|--------------------|-----------------------|
-------------------------|--------------------|-----------------------|


                                                                            
----5----5-------|--3h5-5h7-7/8-8------|----3----1------|----3--5--5/-7----|
----3----3----6--|---------------------|----1----1------|------------------|
----4----4-------|---------------------|----2----2------|------------------|
----3----3-------|---------------------|----1----1------|------------------|
-----------------|---------------------|----------------|------------------|
-----------------|---------------------|----------------|------------------|


                                                                         
------0--0--0--0--|--------0-1h0---0---------|----------7h5---5-8-7-5-7-|
------0--0--0--0--|------0-------3---6h5---5-|--9-6-5-6-----9-----------|
------0--0--0--0--|----2-----------------0---|--------------------------|
------2--2--2--2--|--3-------3---------------|--------------------------|
------3--3--3--3--|--------------------------|--------------------------|
------------------|--------------------------|--------------------------|


                                                              
--10--8----8/7-------|----8--------------|-------------------|
-----------------10--|----10-------------|-------------------|
---------------------|----9--------------|-------------------|
---------------------|----10-------------|-----7h-9-------7--|
---------------------|----------5--5h-7h-|--8----------------|
---------------------|-------------------|-----------3-------|


                                                                        
-----0--0---------||-----0---0----0----------|-------------------------|
------------------||----------------------3--|--3------3-3-----3-3-----|
-----------2------||*------5---4----------4--|--4------4-4-----4-4-----|
-----------3------||*--3-------------7----5--|--x--5h7-----5h7-----5h7-|
--5--------3------||-------------------------|-------------------------|
-----------1------||-------------------------|-------------------------|


                                                                
-----------------------|------1--1--1--1---||------------------|
--3--------------------|------1--1--1--1---||------------------|
--4/-3--2--2h0h4h0-----|------2--2--2--2--*||---------7--5-----|
--------------------3--|------3--3--3--3--*||---------------9--|
-----------------------|-------------------||------7-----------|
-----------------------|-------------------||------------------|


                                                             
--------------------|------------------|----0--0-----0------|
--4-----------------|------------------|----0--0-----0------|
--------5--4--------|------------------|----1--1-----1------|
--------------7--5--|--4--3--3--3------|----3--3-----3--2h3-|
-----5--------------|-----3--3--3------|----2--2--x--2------|
--------------------|-----1--1--1------|--------------------|


                                                                       
--------------4-5-7-4-8h-|----5-----------|--5-7-8-5-10--7-8-10-7-12--|
--------3-5-6------------|---------5------|---------------------------|
--1-2-5------------------|---------5------|---------------------------|
-------------------------|---------5------|---------------------------|
-------------------------|---------7------|---------------------------|
----------------------0--|---------5------|---------------------------|


                                                                         
------------------|--15--13--12h-15--12/-10--10/-|--8--------8---8---8--|
----0--0----------|------------------------------|-----11----4---4------|
----0--0------12--|------------------------------|-----------10--10-----|
----2--2----------|------------------------------|-----------8---8------|
----3--3----------|------------------------------|-----------8---8------|
------------------|------------------------------|-----------10--10-----|


                                                                    
--10--12/-13--12------|----8-----8-----8--|--10h-12--12----12------|
----------------------|----10----10-------|------------------------|
----------------------|----9-----9--------|------------------------|
----------------------|----10----10-------|------------------------|
----------------------|----8-----8--------|------------------------|
----------------------|-------------------|------------------------|


                                                             
------7------7--|--8h-10--10--12--10------|----5-5-5--------|
------8---------|-------------------------|----6-6-6--------|
------9---------|-------------------------|----5-5-5--------|
------9---------|-------------------------|----7-7-7--------|
----------------|-------------------------|----5-5-5--------|
----------------|-------------------------|-----------------|


                                                                             
----4-4-4--5--5--5--|----2-2-2--3----3--|----0-0-0--0/------|---------------|
----5-5-5--6--6--6--|----2-2-2--3----3--|----0-0-0--0/------|---------------|
----6-6-6--7--7--7--|----3-3-3--4----4--|----9-9-9--10/-----|---------------|
----6-6-6--7--7--7--|----4-4-4--5----5--|----9-9-9--10/-----|---------------|
----4-4-4--5--5--5--|----4-4-4--5----5--|----7-7-7--8/------|--------x------|
--------------------|-------------------|----0-0-0----------|---------------|


                                                                 
-----0-1-0---0------|--------3--------7--5h-|----4-----0-----0--|
--0--------3--------|--6--------3-----------|-------6--------5--|
--------------------|-----4--------4--------|----------------4--|
--------------------|-----------------------|----------------5--|
--------------------|-----------------------|-------------3--3--|
-------------0------|--------3--------------|-------------------|


                                                                   
--0----0--0--0----|-----------------------|-----------------------|
--5----5--5--5----|--------------10-------|--------------10/---8--|
--4----4--4--4----|--9--13h10-9--------9--|--9--13h10h9-----------|
--5----5--5--5----|-----------------------|-----------------------|
--3----3--3--3----|-----------------------|-----------------------|
------------------|-----------------------|-----------------------|


                                                                                
---------------------|--------5------|-----0-1-0---0------|--------3-----7--5h-|
--8--12h8/7--8----8--|--------6------|--0--------3--------|--6--------3--------|
---------------------|--------5------|--------------------|-----4--------------|
---------------------|--------7------|--------------------|--------------------|
---------------------|--------5------|--------------------|--------------------|
---------------------|---------------|-------------0------|--------3-----------|


                                                                    
----4-----0--0--0--|--0----0--0--0----|------------0---------------|
-------6-----5--5--|--5----5--5--5----|----------1---3-0-1h5h1-0---|
-------------4--4--|--4----4--4--4----|--------0-----------------2h|
-------------5--5--|--5----5--5--5----|--0h2h3---------------------|
-------------3--3--|--3----3--3--3----|----------------------------|
-------------------|------------------|----------------------------|


                                                                        
-----0----0------------|-----0----0------------|-----------------------|
-----0-------1h5h1h0---|-----0-------1h4h1-0---|-----0-0-0-0--0--0--0--|
--0--0---------------2-|--0--0---------------2-|--0--0-0-0-0--0--0--0--|
-----0-----------------|-----0-----------------|-----0-0-0-0--0--0--0--|
-----2-----------------|-----2-----------------|-----2-2-2-2--2--2--2--|
-----3-----------------|-----3-----------------|-----3-3-3-3--3--3--3--|


                                                                          
-----------------|----7-----5----4--|--5h-4-----0----0--|----0-----------|
--3----5--6------|----------3-------|--------6-------5--|----5-----------|
-----------------|----------4-------|----------------4--|----4--------9--|
-----------------|-------3----------|----------------5--|----5-----------|
-----------------|------------------|----------------3--|----3-----------|
--3--------------|------------------|-------------------|----------------|


                                                                 
--12--10--7--10----8--|-----7----10-7/5------|--5--5--7---------|
----------------------|--9----------------6--|--6--6-----6------|
----------------------|----------------------|--5--5------------|
----------------------|----------------------|--7--7------------|
----------------------|----------------------|--5--5------------|
----------------------|----------------------|------------------|


                                                                              
------3--3--3--3--|--3--3--5---------|------0--0--0-----|--------------------|
------3--3--3--3--|--3--3-----4/-----|------0--0--0-----|--------------------|
------4--4--4--4--|--4--4------------|------0--0--0-----|--------------------|
------3--3--3--3--|--3--3------------|------2--2--2-----|--5--5--7--7/-2h-0--|
------5--5--5--5--|--5--5------------|------3--3--3--5--|--------------------|
------------------|------------------|------------------|--------------------|


                                                               
-----0--0--0-------|----------------------|-------------------|
-----1--1--1-------|----------------------|----------5--6-----|
-----0--0--0-------|-------0--------------|----5h-7--------7--|
--2--2--2--2----0h-|---2h3---3-2-0--------|-------------------|
-----3--3--3-------|---------------3-1----|-------------------|
-------------------|----------------------|-------------------|


                                                                                
---------------------|----0--0----------|-------------------|------------------|
--10/8-8h6-6--5/-----|----1--1----------|-------------------|------------------|
---------------------|----0--0----------|------9--7--7------|----7--5--5/---4--|
---------------------|----2--2----7--9--|--10---------------|------------------|
---------------------|----0--0----------|-------------------|------------------|
---------------------|------------------|-------------------|------------------|


                                                            
-------------------|---------------0--|------1---1---------|
-------------------|------------------|--------------------|
-----5--4--4/---2h-|--0----0--0-------|----4---2---2h---0--|
--7----------------|-------3--3-------|--------------------|
-------------------|-------2--2-------|--------------------|
-------------------|-------3--3-------|--------------------|


                                                                 
-----1--1--------------|---------------------|----0-------------|
-----1--1--------------|---------------------|----0----0--------|
-----0--0--------0-2-4-|--4-4-4-4-4h2h1------|----1----1--------|
--3--3--3--0h2h3-------|---------------------|----3----2h-0-----|
-----------------------|---------------------|----2----------4--|
-----------------------|---------------------|----0-------------|


                                                                           
---------------------|--------------------------|-------------------------|
--0------------------|--------------------------|-------------------------|
--1--------------0-0-|----0-0-----0-0-----0-0---|----0-0-----0-0------0-0-|
--0--------------3-3-|----3-3-----3-3-----3-3---|----3-3-----3-3------3-3-|
-----3--2--0h-3--3-3-|--3-----3h2-----2h0-----0h|----0-0-----0-0------2-2-|
---------------------|--------------------------|--3-----3h1-----1h3------|


                                                      
--------------------------|--------------------0-----|
--------------------------|--------------------------|
----0-0-----0-0-----0-0---|----0-0-----0-0-------0-0-|
----3-3-----3-3-----3-3---|----3-3-----3-3-------3-3-|
--2-----2h0-----0---0-0---|----0-0-----0-0-------0-0-|
------------------3-----3h|--1-----1h0-----0h1-------|


                                                                         
--------------------------|---------------------0--|--0-----0--0--0--0--|
--------------------------|------------------------|--0-----0--0--0--0--|
----0-0-----0-0-----0-0---|----0-0-----0-0---------|--1-----1--1--1--1--|
----3-3-----3-3-----3-3---|----3-3-----3-3---------|--3-----3--3--3--3--|
--0-----0---0-0-----0-0---|----0-0-----0-0---------|--2-----2--2--2--2--|
----------3-----3h1-----1h|--0-----0h1-----1h0-----|--0--x--0--0--0--0--|


                                                            
--0------------|----------------|--------------------------|
--0------------|------------0-0-|----0-0-----0-0-----0-0---|
--1------------|------------1-1-|----1-1-----1-1-----1-1---|
--3------------|------------2-2-|--0-----0h2-----2h0-----0-|
--2------------|----------------|--------------------------|
--0------------|----------------|--------------------------|


                                                                              
-------------------------|--------------------------|---------------------0--|
----0-0-----0-0------0-0-|--------------------------|------------------------|
----1-1-----1-1------2-2-|----1-1-----2-2-----2-2---|----2-2-----2-2---------|
----0-0-----0-0------3-3-|----2-2-----3-3-----3-3---|----3-3-----3-3---------|
--3-----3h2-----2h0------|--2-----3h2-----2h0-----0h|----0-0-----0-0---------|
-------------------------|--------------------------|--3-----3h1-----1h0h----|


                                                                                
-----------0--------|--0-----------0--0--|-------------------|----0----0------||
-----------0--------|--0-----------1--1--|-----0--0----------|----0----0------||
-----------1--------|--1-----------2--2--|-----0--0-----2----|----2----1------||
--------3--2h-0-----|--0-----------2--2--|-----0--0-----3----|----3----2------||
-----2-----------4--|-----3--2--0--------|-----2--2-----3----|----3----2------||
--4-----------------|--------------------|--3--------1-------|----1----0------||





Comments


Popular Vicente Amigo tabs & chords
Callejon De La Luna Tabs
Cordoba Tabs
Demi Corazon Al Aire Tabs
El Mandaito Tabs
Gitano De Lucia Tabs
Morao Tabs
Morente Tabs
My Heart To The Wind Mi Corazon Al Aire Tabs
Tio Arango Tabs


Song lyrics



↑ Back to top | Tablatures and chords are parodies/interpretations of the original songs. You may use it for private study, scholarship, research or language learning purposes only
© 2014 AZChords.com Contact us | Privacy policy | DMCA | Add/correct tabs | Request tabs | Top 50 tabs