>
 >
Gitano De Lucia

Gitano De Lucia Guitar Tabs

Vicente Amigo - Gitano De Lucia chords, tabs, tablatures, lyrics

Guitar lessons | Add/correct | Request | Top 50 tabs Artists:  A B C D E F G H I J K L M N O P Q R S T U V W X Y Z 0-9

Gitano De Lucia Guitar Tabs – Vicente Amigo

CD, Sheet music, Poster

Do you like Gitano De Lucia? Share with your friends now
Tabs
Gitano de lucia                                 


                                                                   Vicente AMIGO



                                                             
E||----------------|--------------------|-------------------|
B||----------------|--------------------|-------------------|
G||----------------|--------------------|-------------------|
D||----------2-----|-----0--------2-----|-----0-----2-------|
A||-------------0--|--------0--------0--|--------0-------0--|
E||----------------|--1--------1--------|--1----------------|


                                                              
--------------------|-------------------|--------------------|
--------------------|-------------------|--------------------|
--------------------|-------------------|--------------------|
-----0--------------|--------0--2-------|-----0--------2-----|
--------0--------0--|--1--3----------0--|--------0--------0--|
--1--------1h-3-----|-------------------|--1--------1--------|


                                                             
-------------------|--------------------|-------------------|
-------------------|--------------------|-------------------|
-------------------|--------------------|-----------2-------|
-----0-----2-------|-----0--------------|--------0-------0--|
--------0-------0--|--------0--------0--|--1--3-------------|
--1----------------|--1--------1h-3-----|-------------------|


                                                              
--------------------|-------------------|--------------------|
--------------------|-------------------|--------------------|
-----0--------2-----|-----0-----2-------|-----0--------------|
--------0--------0--|--------0-------0--|--------0--------0--|
--1--------1--------|--1----------------|--1--------1h-3-----|
--------------------|-------------------|--------------------|


                                                             
-------------------|--------------------|-------------------|
-------------------|--------------------|-------------------|
--------0--2-------|-----0--------2-----|-----0-----2-------|
--2--3----------0--|--------0--------0--|--------0-------0--|
-------------------|--1--------1--------|--1----------------|
-------------------|--------------------|-------------------|


                                                              
--------------------|-------------------|--------------------|
--------------------|-------------------|--------------------|
-----0--------------|--------0--5-------|-----3--------------|
--------0--------0--|--2--3----------3--|--------3--------3--|
--1--------1h-3-----|-------------------|--5--------5h-7-----|
--------------------|-------------------|--------------------|


                                                             
-------------------|--------------------|-------------------|
-------------------|--------------------|-------------------|
--------3--2-------|-----0--------------|--------1----------|
--5--7----------0--|--------0--------0--|--2--3-----3-------|
-------------------|--1--------1h-3-----|----------------2--|
-------------------|--------------------|-------------------|


                                                              
--------------------|-------------------|--------------------|
--------------------|-------------------|--------------------|
--------------------|-------------------|--------------------|
-----2--------3-----|-----2-----3-------|-----2--------2-----|
--------2--------2--|--------2-------2--|--------2--------2--|
--0--------0--------|--0----------------|--0--------0--------|


                                                             
-------------------|--------------------|-------------------|
-------------------|--------------------|-------------------|
-------------------|--------------------|-------------------|
-----2-----3-------|-----1--------3-----|-----1-----3-------|
--------2-------1--|--------1--------1--|--------1-------1--|
--0----------------|--2--------2--------|--2----------------|


                                                              
--------------------|-------------------|--------------------|
--------------------|-------------------|--------------------|
--------------------|-------------------|--------------------|
-----1--------------|--------1--2-------|-----0--------2-----|
--------1--------1--|--3--4----------0--|--------0--------0--|
--2--------2h-4-----|-------------------|--1--------1--------|


                                                             
-------------------|--------------------|-------------------|
-------------------|--------------------|-------------------|
-------------------|--------------------|-----------2-------|
-----0-----2-------|-----0--------------|--------0-------0--|
--------0-------0--|--------0--------0--|--1--3-------------|
--1----------------|--1--------1h-3-----|-------------------|


                                                              
--------------------|-------------------|--------------------|
--------------------|-------------------|--------------------|
-----0--------------|--------0--5-------|-----3--------------|
--------0--------0--|--2--3----------3--|--------3--------3--|
--1--------1h-3-----|-------------------|--5--------5h-7-----|
--------------------|-------------------|--------------------|


                                                             
-------------------|--------------------|-------------------|
-------------------|--------------------|-------------------|
--------3--2-------|-----0--------------|--------1----------|
--5--7----------0--|--------0--------0--|--2--3-----3-------|
-------------------|--1--------1h-3-----|----------------2--|
-------------------|--------------------|-------------------|


                                                              
--------------------|-------------------|--------------------|
--------------------|-------------------|--------------------|
--------------------|-------------------|--------------------|
-----2--------3-----|-----2-----3-------|-----2--------3-----|
--------2--------2--|--------2-------2--|--------2--------2--|
--0--------0--------|--0----------------|--0--------0--------|


                                                                            
-------------------|--------------------|--------------0----|--------------|
-------------------|--------------------|--------------0----|--------------|
-------------------|--------------------|--------------1----|--------------|
-----2-----3-------|-----2--------3-----|-----0--------2----|--------------|
--------2-------2--|--------2--------2--|--------2-----2----|--------------|
--0----------------|--0--------0--------|--0--------0--0----|--------------|


                                                                           
--------------|--------------|--------------|--------------|--------------|
--------------|--------------|--------------|--------------|--------------|
--------------|--------------|--------------|--------------|--------------|
--------------|--------------|--------------|--------------|--------------|
--------------|--------------|--------------|--------------|--------------|
--------------|--------------|--------------|--------------|--------------|


                                                                          
--------------|-----------------|--------------------|-------------------|
--------------|-----------------|--------------------|-----2--3--5-------|
--------------|-----------2-----|-----2--------3-----|----------------3--|
--------------|--------2-----2--|--------2--------2--|-------------------|
--------------|-----------------|--0--------0--------|--0----------------|
--------------|-----------------|--------------------|-------------------|


                                                                                
----------------0--|-----1h-0----------|-------------------|----------------0--|
-----5-------1-----|--3--------1-------|-----1-------------|----------------2--|
----------3--------|----------------3--|----------------5--|--3--6--5-------2--|
--2----------------|-------------------|--3----------3-----|-----------7----2--|
-------------------|-------------------|----------4--------|----------------0--|
-------------------|-------------------|-------------------|-------------------|


                                                                         
--0--0------------|-----------------|------------------|----------------|
--2--2/-1----2----|-----------------|------1--2--2--2--|----------------|
--2--2/-1----2----|-----------2-----|------1--2--2--2--|----------7-----|
--2--2/-1----2----|--------2-----2--|------1--2--2--2--|-------------0--|
--0--0-------0----|-----------------|------------------|----------------|
------------------|-----------------|------------------|----------------|


                                                               
--------------------|--------------------|--------------------|
-----8--------7-----|-----4h-8-----7-----|-----8--------7-----|
--------7--------7--|-----------7--------|--------7--------7--|
-----------0--------|--0--------------0--|-----------0--------|
--6-----------------|--------------------|--6-----------------|
--------------------|--------------------|--------------------|


                                                             
-------------------|--------------------|-------------------|
-----4h-8----------|-----8--------7-----|-----4h-8----------|
-----------7-------|--------7--------7--|-----------7-------|
--0-------------0--|-----------0--------|--0-------------0--|
-------------------|--6-----------------|-------------------|
-------------------|--------------------|-------------------|


                                                                  
-------------------|-------------------------|-------------------|
----------1--2--3--|--1----------------------|----3--------4-----|
-----7-------------|-----3--2--0-------------|-------2--------2--|
-------------------|--------------3--1--0----|----------0--------|
--6----------------|-------------------------|-------------------|
-------------------|-------------------------|-------------------|


                                                             
-------------------|--------------------|-------------------|
-----2--4--3-------|-----3--------4-----|-----2--4--3-------|
----------------2--|--------2--------2--|----------------2--|
--0----------------|--0--------0--------|--0----------------|
-------------------|--------------------|-------------------|
-------------------|--------------------|-------------------|


                                                              
--------------------|-------------------|--------------------|
-----3--------4-----|-----2--4--3-------|-----3--------3-----|
--------2--------2--|----------------2--|--------2--------2--|
--0--------0--------|--0----------------|--0--------0--------|
--------------------|-------------------|--------------------|
--------------------|-------------------|--------------------|


                                                             
-------------------|--------------------|-------------------|
-----3-------------|--------------------|-----2--3--5-------|
-------------2-----|-----2--------3-----|----------------3--|
--0-------2-----2--|--------2--------2--|-------------------|
-------------------|--0--------0--------|--0----------------|
-------------------|--------------------|-------------------|


                                                             
----------------0--|-----1h-0----------|--------------------|
-----5-------1-----|--3--------1-------|-----1h-0-----------|
----------3--------|----------------3--|-----------------5--|
--2----------------|-------------------|--3-----------3-----|
-------------------|-------------------|-----------4--------|
-------------------|-------------------|--------------------|


                                                                              
-------------------|-----------------|--------------------|------------------|
----------------2--|--2--2-----------|--------------------|------------------|
--3--6--5-------2--|--2--2-----------|--------------------|------------------|
-----------7----2--|--2--2-----------|-----7h-5--7-----5--|------------0-----|
----------------0--|--0--0-----------|--0-----------8-----|----7----8-----7--|
-------------------|--------------6--|--------------------|------------------|


                                                                             
-----------------|----------------|-----------------0--|-----------0--------|
-----------------|----------------|--------------------|--------------------|
-----------------|----------------|--------------------|--------------------|
-----------------|----------------|--------------7-----|--------5-----------|
----3----5--0----|----------------|--------5--7--------|--4--5--------2--3--|
-----------------|----6--------5h-|--6--9--------------|--------------------|


                                                                            
-------------------|----------------------|--------------|-----------------|
-------------------|----------------------|--------------|----3--3--3------|
-------------------|----------------------|--------------|----3--3--3------|
--3--------2----0--|----------------------|--------------|----0--0--0------|
-----0--1----------|----4----3----1----0--|--------------|----1--1--1------|
-------------------|----------------------|--------------|----1--1--1------|


                                                                    
--------------|----0------------|----------------|-----------------|
--------------|-----------------|----------2--2--|----2------2--2--|
--------------|-----------------|----------3--3--|----3------3--3--|
--------------|-----------------|----------2--2--|----2------2--2--|
--------------|---------1h-0----|----------0--0--|----0------0--0--|
--------------|-----------------|----------------|-----------------|


                                                                              
------------------|---------------------|-----------------|-----0------------|
----2----2--2--2--|--2--2--2----2--2-2--|--2--------2--2--|-----2--2----3----|
----3----3--3--3--|--3--3--3----3--3-3--|--3--------3--3--|--2--3--3----0----|
----2----2--2--2--|--2--2--2----2--2-2--|--2--------2--2--|-----2--2----3----|
----0----0--0--0--|--0--0--0----0--0-0--|--0--------0--0--|-----0--0----1----|
------------------|---------------------|-----------------|------------------|


                                                                   
----------------|-------------------|--------------|--------------|
----------3-----|----2--2--2--2--2--|--------------|--------------|
----------0-----|----2--2--2--2--2--|--------------|--------------|
----------3-----|----2--2--2--2--2--|--------------|--------------|
----------1--0--|----0--0--0--0--0--|--------------|--------------|
----------------|-------------------|--------------|--------------|


                                                                         
--------------|---------------|--------------0h-5--|--0--------0--------|
--------------|---------------|--------5-----------|-----6--------3-----|
--------------|---------------|-----7-----7--------|--------7--------6--|
--------------|---------------|--------------------|--------------------|
--------------|---------------|--------------------|--------------------|
--------------|------------5h-|--6-----------------|--------------------|


                                                            
--------------------|------------------|-------------0h-5h-|
--3-----3--3/-9--6--|--6/-5--5---------|-------6-----------|
-----6--------------|------------------|----7-----7--------|
--------------------|------------------|-------------------|
--------------------|------------------|-------------------|
--------------------|---------------6--|-------------------|


                                                             
--0--------0--------|--------------------|------------------|
-----6--------3-----|--3-----3--3/-9--6--|--6/-5--5---------|
--------7--------6--|-----6--------------|------------------|
--------------------|--------------------|------------------|
--------------------|--------------------|---------------9--|
--------------------|--------------------|------------------|


                                                                
---------------------|---------------0-----|----------------3--|
-----------7--8h-11h-|--7------------------|----------------3--|
-----7h-8------------|-----8h-7------------|----------------3--|
--7------------------|-----------10-----9--|--8h---7--------3--|
---------------------|---------------------|----------10----5--|
---------------------|---------------------|-------------------|


                                                                            
--3--3-----------|-----5-------------|------------------|--10----8----6----|
--3--3-----------|--4-----7--4-------|-------7----10----|------------------|
--3--3--------3--|-------------------|--7---------------|------------------|
--3--3-----------|--------------0----|------------------|------------------|
--5--5-----------|-------------------|------------------|------------------|
-----------------|-------------------|------------------|------------------|


                                                                          
--10----5--------|------3------3--|-----------3----3--|-------------3----|
-----------------|------3---------|--7--5--3--3----3--|----7--5--3--3----|
-----------------|------3---------|-----------3----3--|-------------3----|
-----------------|------3---------|-----------3----3--|-------------3----|
-----------------|------5---------|-----------5----5--|-------------5----|
-----------------|------3---------|-----------3----3--|-------------3----|


                                                                             
-----------3------|----3----3--3--3--|--3------------||---------------------|
--7--5--3--3------|----3----3--3--3--|--3------------||---------------------|
-----------3------|----3----3--3--3--|--3------------||*--------2--------2--|
-----------3------|----3----3--3--3--|--3------------||*--------------------|
-----------5------|----5----5--5--5--|--5------------||---0h-1-----0h-1-----|
-----------3------|----3----3--3--3--|--3------------||---------------------|


                                                                                
------------------|--------------------|--------------------|------------------|
------------------|--------------------|--------------------|------------------|
--------2----3----|--------0--------0--|--------0--------2--|------------------|
------------------|--------------------|--------------------|----3----------3--|
--0h-1------------|--0h-1-----0h-1-----|--0h-1-----0h-1-----|---------0h-1-----|
------------------|--------------------|--------------------|------------------|


                                                                              
--------------------|------------------|--------------------|---------------||
--------------------|------------------|--------------------|---------------||
--------------------|----0-------------|--------------------|--------------*||
--------3--------3--|---------------2--|--------2--------2--|--------------*||
--0h-1-----0h-1-----|---------0h-1-----|--0h-1-----0h-1-----|---------------||
--------------------|------------------|--------------------|---------------||


                                                                       
----3--3--------|---------3--3--3--|--3--3----------|----3----3----3--|
----3--3--------|---------3--3--3--|--3--3----------|----3----3----3--|
----5--5--------|--3------5--5--5--|--5--5----------|----5----5----5--|
----3--3--------|---------3--3--3--|--3--3----------|----3----3----3--|
----5--5--------|---------5--5--5--|--5--5----------|----5----5----5--|
----3--3--------|---------3--3--3--|--3--3----------|----3----3----3--|


                                                                        
--3----3--------|-----------------|----------------|-----3--3----------|
--3----3--------|---------1-------|----------------|-----3--3----------|
--5----5--------|--2------2----3--|--1----1--------|--3--5--5--5----3--|
--3----3--------|---------1-------|----------------|-----3--3--3-------|
--5----5--------|---------3-------|----------------|-----5--5--5-------|
--3----3--------|---------1-------|----------------|-----3--3--3-------|


                                                                      
----------------|----------------|-----0-----------|---------0-------|
----------------|----------------|-----------------|-----------------|
--5--5----------|--3----3--------|--1-----1--------|--1--------------|
--3--3----------|-------1--------|--------0--------|--------------2h-|
--5--5----------|-------3--------|--------2--------|-----------------|
--3--3----------|-------1--------|--------0--------|-----------------|


                                                                             
--------0--0--------|--------------------|-----0----------|-----------------|
--------0-----------|--------------------|-----0----------|-----------------|
--------1-----------|--------------------|-----1----------|-----------------|
--3--0--2-----3--0--|--2h-3--0--2h-3--0--|--2-------------|-----------------|
--------------------|--------------------|----------------|-----------------|
--------------------|--------------------|----------------|--------0h-5--0h-|


                                                                           
-------------------|-------------------|--------------3--|----------------|
-------------------|-------------------|--------------3--|----------------|
--------0----------|-----3----3--------|--------------3--|----------------|
--------0----------|-----3----3--------|-----------------|----------------|
-----1-------------|--5----------7--5h-|--3--------------|----1h-0--------|
--1----------0--3--|-------------------|-----6-----------|----------------|


                                                                              
---------------0--|---------0----0--|----0--0--0----0--|--0----0--0-0--0--0--|
------2--2-----2--|---------2----2--|----2--2--2----2--|--2----2--2-2--2--2--|
------3--3--2--2--|------3--2----2--|----2--2--2----2--|--2----2--2-2--2--2--|
------2--2-----2--|---------2----2--|----2--2--2----2--|--2----2--2-2--2--2--|
------0--0-----0--|---------0----0--|----0--0--0----0--|--0----0--0-0--0--0--|
------------------|-----------------|------------------|---------------------|


                                                                             
----0--0--0-----0--|-----0-----0------|----------0-------|-----0------------|
----2--2--2-----2--|-----2-----2------|----------2-------|-----2------------|
----2--2--2--2--2--|--3--2-----2------|----3--2--2----3--|--2--2----3--2----|
----2--2--2-----2--|-----2--2--2------|----------2-------|-----2------------|
----0--0--0-----0--|-----0-----0------|----------0-------|-----0------------|
-------------------|------------------|------------------|------------------|


                                                                                
----0--0--0------|--------1--1----1--|--1--0--1--1--0--1--|--1--1--0--1--1--1h-|
----2--2--2------|--2--2--3--3----3--|--3--3--3--3-----3--|--3--3-----3--3--3--|
----2--2--2------|--2--2--3--3----3--|--3--3--3--3-----3--|--3--3-----3--3--3--|
----2--2--2------|--2--2--3--3----3--|--3--3--3--3-----3--|--3--3-----3--3--3--|
----0--0--0------|--0--0-------------|--------------------|--------------------|
-----------------|-------------------|--------------------|--------------------|


                                                                               
--0--1----1--0----|--1--0--1--1----1h-|--0--1-------------|-------------------|
-----3----3-------|--3--3--3--3----3--|-----3--3--3----3--|--3--3-------------|
-----3----3-------|--3--3--3--3----3--|-----3--3--3----3--|--3--3-------------|
-----3----3-------|--3--3--3--3----3--|-----3--2--2----2--|--0--0-------------|
------------------|-------------------|--------3--3----3--|--1--1--3--1h-0----|
------------------|-------------------|-------------------|-------------------|


                                                                      
-----------------|----------------|-------------0--|--0--------------|
--------------2--|--2----3--------|-------------3--|--3--------------|
------3h-2----2--|--2----0--------|-------------2--|--2--------------|
--------------2--|--2----3--------|-------------3--|--3--------------|
--------------0--|--0----1--------|----------0-----|-----1h-0--------|
-----------------|----------------|----------------|-----------------|


                                                                            
----0--0--0--------|----------------|--------------0--|--0----0--0-0--0----|
----2--2--2--2--2--|--2----3--------|------3-------2--|--2----2--2-2--2----|
----2--2--2--2--2--|--2----0--------|------0-------2--|--2----2--2-2--2----|
----2--2--2--2--2--|--2----3--------|------3-------2--|--2----2--2-2--2----|
----0--0--0--0--0--|--0----1--------|------1h-0----0--|--0----0--0-0--0----|
-------------------|----------------|-----------------|--------------------|


                                                                              
-----------------|----0------------|--0-----------------|----0---------------|
-----------------|-----------------|--------------------|--------------------|
------2----0--2--|---------7----5--|-----0-----1h-0--2--|-----------------3--|
------3----------|-----------------|-----------1--------|--------------1-----|
------3----------|-----------------|--------0-----------|--------------------|
------1----------|-----------------|--------------------|-----------1--------|


                                                                  
-----------------------|--------------------|--------------------|
--4--------4--------4--|--------4--------4/-|--6--3--------------|
-----3--------3--------|--3--------3--------|--------5--4--3--2--|
--------1--------1-----|-----1--------1-----|--------------------|
-----------------------|--------------------|--------------------|
-----------------------|--------------------|--------------------|


                                                                               
----0----1----0--|------------------|-----------------0--|-----0-----0--------|
---------3-------|------------------|-----------3h-5-----|--5-----8-----3-----|
---------2-------|------------------|-----3h-5-----------|-----------------5h-|
---------0-------|------------3h-5h-|--7-----------------|--------------------|
-----------------|---------5--------|--------------------|--------------------|
-----------------|------3-----------|--------------------|--------------------|


                                                                          
-----0--5--5--5----|----4------------|-----------------|-----------------|
--------5--5--5----|-----------------|-----------------|-----------------|
--0-----5--5--5----|-----------------|-------5---------|-----------------|
--------5--5--5----|-----------------|--8---------6----|--5--------------|
--------7--7--7----|------------6----|-----------------|-------8----6----|
--------5--0--5----|-------4---------|-----------------|-----------------|


                                                                           
----------------|-----------------|--------------------|------------------|
--3-------------|-----------------|--------3--3-----3--|----3-------------|
--3-------------|-----------------|--------3--3-----3--|----3-------------|
--3-------------|-----------------|--------0--0-----0--|----0-------------|
--5----------3--|--5------3----0--|--1h-3--------4-----|---------1h-0--1h-|
----------------|-----------------|--------------------|------------------|


                                                              
--------------3-----|----------------0--|--0-----------1-----|
--------------------|----------------1--|--1-----------------|
--------------------|----------------0--|--0-----------------|
-----0--5--5-----5/-|--3h-2--0-------2--|--2-----3--3-----3h-|
--3-----------------|-----------3----3--|--3--3--------------|
--------------------|-------------------|--------------------|


                                                             
----------------0--|--0-----0-----0-----|-------------------|
-------------------|--------------------|----------------3--|
-------------------|--------------------|----------------3--|
--2h-0-------------|-----2-----2-----0--|--0-------------0--|
--------3--1-------|--------------------|-----4--1h-0-------|
-------------------|--------------------|-------------------|


                                                             
--------------------|------------------|-----------3--------|
--3-----3--3-----3--|----3-------------|--------------------|
--3-----3--3-----3--|----3-------------|--------------------|
--0-----0--0-----0--|----0-------------|-----0--5-----5/-3--|
-----4--------4-----|---------1h-0--1h-|--3-----------------|
--------------------|------------------|--------------------|


                                                             
----------------0--|--0-----------1-----|----------------0--|
----------------1--|--1-----------------|-------------------|
----------------0--|--0-----------------|-------------------|
--3h-2--0-------2--|--2-----3--3-----3--|--2h-0-------------|
-----------3----3--|--3--3--------------|--------3--1-------|
-------------------|--------------------|-------------------|


                                                             
--0-----0-----0-----|----------------0--|----0--------------|
--------------------|-------------------|-------------------|
--------------------|-------------------|-------------5--3--|
-----2-----2-----0--|--0----------------|----------3--------|
--------------------|-----4--1h-0-------|-------4-----------|
--------------------|-------------------|-------------------|


                                                                               
----1--------------|----0--------------|----0----0-------|--------0--0--------|
-------------------|-------------------|---------0-------|--------0-----------|
-------------------|-------------2--1--|---------1-------|--------1-----------|
----------1--3--2--|----------0--------|---------2----2h-|--3--0--2-----3--0--|
-------3-----------|-------2-----------|---------2-------|--------------------|
-------------------|-------------------|-----------------|--------------------|


                                                             
--------------------|-----------0--------|----0-------------|
--------------------|--------0-----------|------------------|
--------------------|-----1--------------|---------5h-3-----|
--2h-3--0--2h-3--0--|--2-----------------|---------------4h-|
--------------------|--------------------|------------------|
--------------------|--------------------|------------------|


                                                                               
--------------------|-------------------|--------0-------0--|----0----0--0----|
-----------3--------|-------------------|----------------2--|----2----2--2----|
-----------3--------|-------------------|----------------2--|----2----2--2----|
--5--3-----5--3-----|-----7-------5/-3--|-----3----------2--|----2----2--2----|
--------7--------7--|--5-------3--------|--1--------0----0--|----0----0--0----|
--------------------|-------------------|-------------------|-----------------|


                                                                        
----------------|----------------|--------------|-------0--------------|
----------2--2--|--2----2--------|--------------|-----2---2------------|
----------2--2--|--2----2--------|--------------|---2-------2----------|
----------2--2--|--2----2--------|--------------|-------------2--------|
----------0--0--|--0----0--------|--------------|---------------0------|
----------------|----------------|--------------|-----------------5----|


                                                                       
--------------|---------------|--------------||--------0--------------|
--------------|------2--------|--------------||------2---2------------|
--------------|------2--------|--------------||*---2-------2----------|
--------------|------2--------|--------------||*-------------2--------|
--------------|------0--------|--------------||----------------0------|
--------------|------5--------|--------------||------------------5----|


                                                              
--------------|--------------|---------------||--------------|
--------------|--------------|---------------||--------------|
--------------|--------------|--------------*||--------------|
--------------|--------------|--------------*||--------------|
--------------|--------------|---------------||--------------|
--------------|--------------|---------------||--------------|


                                                            
------------------|--------------------|-------------------|
------------------|--------------------|-------------------|
------------------|--------------------|-------------------|
------3--------1--|--------3--------1--|-----3----------1--|
---------1--------|--1--------1--------|--1-------1--------|
------------2-----|-----2--------2-----|-------------2-----|


                                                              
--------------------|-------------------|--------------------|
--------------------|-------------------|--------------------|
--------------------|-------------------|--------------------|
--------------------|--1--2----------0--|--------2--------0--|
--1--------1--3--4--|----------0--------|--0--------0--------|
-----2h-4-----------|-------------1-----|-----1--------1-----|


                                                             
-------------------|--------------------|-------------------|
-------------------|--------------------|-------------------|
-------------------|--------------------|-------------------|
-----2----------0--|--------2--------0--|----3--3--------1--|
--0-------0--------|--0--------0--------|----------1--------|
-------------1-----|-----1--------1-----|-------------2-----|


                                                              
--------------------|-------------------|--------------------|
--------------------|-------------------|--------------------|
--------------------|-------------------|--------------------|
--------3--------1--|-----3----------1--|--------------------|
--1--------1--------|--1-------1--------|--1--------1--3--4--|
-----2--------2-----|-------------2-----|-----2h-4-----------|


                                                             
-------------------|--------------------|-------------------|
-------------------|--------------------|-------------------|
-------------------|--------------------|-------------------|
--1--2----------0--|--------2--------0--|-----2----------0--|
----------0--------|--0--------0--------|--0-------0--------|
-------------1-----|-----1--------1-----|-------------1-----|


                                                              
--------------------|-------------------|--------------------|
--------------------|-------------------|--------------------|
--------------------|-------------------|--------------------|
--------------------|--0--3----------2--|--------3--------2--|
--0--------0--1--3--|----------2--------|--2--------2--------|
-----1h-3-----------|-------------0-----|-----0--------0-----|


                                                             
-------------------|--------------------|-------------------|
-------------------|--------------------|-------------------|
-------------------|--------------------|-------------------|
-----3----------2--|-----------------3--|--6--5----------3--|
--2-------2--------|--2--------2--5-----|----------3--------|
-------------0-----|-----1--4-----------|-------------4-----|


                                                              
--------------------|-------------------|--------------------|
--------------------|-------------------|--------------------|
--------------------|-------------------|--------------------|
--------5--------3--|-----5----------3--|--------5--------3--|
--3--------3--------|--3-------3--------|--3--------3--------|
-----4--------4-----|-------------4-----|-----4--------4-----|


                                                             
-------------------|--------------------|-------------------|
-------------------|--------------------|-------------------|
-------------------|--------------------|-------------------|
-----2----------0--|--------2--------0--|-----2----------0--|
--3-------0--------|--0--------0--------|--0-------0--------|
-------------1-----|-----1--------1-----|-------------1-----|


                                                              
--------------------|-------------------|--------------------|
--------------------|-------------------|--------------------|
--------------------|-----2----------0--|--------2--------0--|
--------------------|--0-------0--------|--0--------0--------|
--0--------0--1--3--|-------------1-----|-----1--------1-----|
-----1h-3-----------|-------------------|--------------------|


                                                             
-------------------|--------------------|-------------------|
-------------------|--------------------|-------------------|
-----2----------0--|--------------------|--0--5----------3--|
--0-------0--------|--0--------0--2--3--|----------3--------|
-------------1-----|-----1h-3-----------|-------------5-----|
-------------------|--------------------|-------------------|


                                                              
--------------------|-------------------|--------------------|
--------------------|-------------------|--------------------|
--------5--------3--|-----2----------0--|--------2-----------|
--3--------3--------|--3-------0--------|--0--------0-----3--|
-----5--------3-----|-------------1-----|-----1--------1-----|
--------------------|-------------------|--------------------|


                                                             
-------------------|--------------------|-------------------|
-------------------|--------------------|-------------------|
--1----------------|--------------------|-------------------|
-----3----2-----2--|--------3--------2--|-----3----2-----2--|
-------------------|--2--------2--------|--2----------------|
-------------0-----|-----0--------0-----|-------------0-----|


                                                                              
--------------------|--------0--------|--------0--0--0--|--0--0--1--1--0--0--|
--------------------|--------0--------|--------5--5--5--|--5--5--5--5-----5--|
--------------------|--------1--------|--------3--3--3--|--3--3--3--3-----3--|
--------3--------0--|--------2--------|--------3--3--3--|--3--3--3--3-----3--|
--2--------2--------|--2-----2--------|-----------------|--------------------|
-----0--------0-----|-----0--0--------|-----------------|--------------------|


                                                            
----0--1--1--0--0--|----0--1--1--0--0--|----0----0-0-0--0--|
----5--5--5-----5--|----5--5--5-----5--|----5----5-5-5--5--|
----3--3--3-----3--|----3--3--3-----3--|----3----3-3-3--3--|
----3--3--3-----3--|----3--3--3-----3--|----3----3-3-3--3--|
-------------------|----------------0--|----0----0-0-0--0--|
-------------------|-------------------|-------------------|


                                                             
--0--0--1--1--0--0--|----0--1--1--0--0--|----1--1--1--0--0--|
--5--5--5--5-----5--|----5--5--5-----5--|----5--5--5-----5--|
--3--3--3--3-----3--|----3--3--3-----3--|----3--3--3-----3--|
--3--3--3--3-----3--|----3--3--3-----3--|----3--3--3-----3--|
--0--0--0--0-----0--|----0--0--0-----0--|----0--0--0-----0--|
--------------------|-------------------|-------------------|


                                                             
----0----0-0-0--0--|--0--0--1--1--0--0--|----0--1--1--0--1h-|
----5----3-3-3--3--|--3--3--3--3-----3--|----3--3--3-----3--|
----3----3-3-3--3--|--3--3--3--3-----3--|----3--3--3-----3--|
----3----3-3-3--3--|--3--3--3--3-----3--|----3--3--3-----3--|
----0----0-0-0--0--|--0--0--0--0-----0--|----0--0--0-----0--|
-------------------|--------------------|-------------------|


                                                                                
--0--0-----------0--|-------0--0-----0--|----0-------------|-------------------|
-----1--3--3--1--1--|----3--1--1--1--1--|----1----3--3--3--|-------------------|
-----0--0--0-----0--|-------0--0-----0--|----0----5--5--5--|--3----5--5--5--3--|
-----2--2--2-----2--|-------2--2-----2--|----2----3--3--3--|-------3--3--3-----|
-----0--0--0-----0--|-------0--0-----0--|----0----5--5--5--|-------5--5--5-----|
--------------------|-------------------|---------3--3--3--|-------3--3--3-----|


                                                             
----------------0--|----0--0--0--0--0--|--0--0--1--1--0--0--|
----2--2--------2--|----5--5--5--5--5--|--5--5--5--5-----5--|
----2--2--3--2--2--|----3--3--3--3--3--|--3--3--3--3-----3--|
----2--2--2-----2--|----3--3--3--3--3--|--3--3--3--3-----3--|
----0--0--0-----0--|----0--0--0--0--0--|--0--0--0--0-----0--|
-------------------|-------------------|--------------------|


                                                            
----0--1--1--0--0--|----0--1--1--0--0--|----0----0-0-0--0--|
----5--5--5-----5--|----5--5--5-----5--|----5----5-5-5--5--|
----3--3--3-----3--|----3--3--3-----3--|----3----3-3-3--3--|
----3--3--3-----3--|----3--3--3-----3--|----3----3-3-3--3--|
----0--0--0-----0--|----0--0--0-----0--|----0----0-0-0--0--|
-------------------|-------------------|-------------------|


                                                             
--0--0--1--1--0--0--|----0--1--1--0--0--|----0--1--1--0--0--|
--5--5--5--5-----5--|----5--5--5-----5--|----5--5--5-----5--|
--3--3--3--3-----3--|----3--3--3-----3--|----3--3--3-----3--|
--3--3--3--3-----3--|----3--3--3-----3--|----3--3--3-----3--|
--0--0--0--0-----0--|----0--0--0-----0--|----0--0--0-----0--|
--------------------|-------------------|-------------------|


                                                             
----0----0-0-0--0--|--0--0--1--1--0--1--|----0--1--1--0--1--|
----5----3-3-3--3--|--3--3--3--3-----3--|----3--3--3-----3--|
----3----3-3-3--3--|--3--3--3--3-----3--|----3--3--3-----3--|
----3----3-3-3--3--|--3--3--3--3-----3--|----3--3--3-----3--|
----0----0-0-0--0--|--0--0--0--0-----0--|----0--0--0-----0--|
-------------------|--------------------|-------------------|


                                                                               
----0--------------|-------------------|----1--1--1--1----|--3--3--3----5--5--|
----1--3--3--1--3--|----3--3--3--1--3--|----1--1--1--1----|--3--3--3----5--5--|
----0--0--0-----0--|----0--0--0-----0--|----2--2--2--2----|--3--3--3----6--6--|
----2--2--2-----2--|----2--2--2-----2--|----3--3--3--3----|--5--5--5----5--5--|
----0--0--0-----0--|----0--0--0-----0--|----3--3--3--3----|--5--5--5----7--7--|
-------------------|-------------------|----1--1--1--1----|--3--3--3----5--5--|


                                                                   
--5----6--6--6----|--------5--5----|--------------|--------------||
--5----6--6--6----|--------5--5----|--------------|--------------||
--6----7--7--7----|--------6--6----|--------------|--------------||
--5----6--6--6----|--------7--7----|--------------|--------------||
--7----8--8--8----|--------7--7----|--------------|--------------||
--5----6--6--6----|--------5--5----|--------------|--------------||





Comments


Popular Vicente Amigo tabs & chords
Callejon De La Luna Tabs
Cordoba Tabs
Demi Corazon Al Aire Tabs
El Mandaito Tabs
Mensaje Tabs
Morao Tabs
Morente Tabs
My Heart To The Wind Mi Corazon Al Aire Tabs
Tio Arango Tabs


Song lyrics



↑ Back to top | Tablatures and chords are parodies/interpretations of the original songs. You may use it for private study, scholarship, research or language learning purposes only
© 2014 AZChords.com Contact us | Privacy policy | DMCA | Add/correct tabs | Request tabs | Top 50 tabs