>
 >
Demi Corazon Al Aire

Demi Corazon Al Aire Guitar Tabs

Vicente Amigo - Demi Corazon Al Aire chords, tabs, tablatures, lyrics

Guitar lessons | Add/correct | Request | Top 50 tabs Artists:  A B C D E F G H I J K L M N O P Q R S T U V W X Y Z 0-9

Demi Corazon Al Aire Guitar Tabs – Vicente Amigo

CD, Sheet music, Poster

Do you like Demi Corazon Al Aire? Share with your friends now
Tabs


this is one sick flamenco song, i tabbed it for a performance that i have to do for
school. it took me a while to tab out, but it was worth it!
Feel free to make changes to the tab, but you must acknowledge me.

e|-----------------------3-3-3-| X2-----------------------------------|  X2
B|-----------------------3-3-3-|--------------------------------------|
G|-----------------------4-4-4-|------------------------------6--7----|
D|---------11-----9-7----5-5-5-|------------0--------7----9-----------|
A|---9-8-9----10---------5-5-5-|-------------------7------------------|
E|-7-----------------10--3-3-3-|---------7------9-------------------7\|

e|-----------------------------------------------------------|
B|---------------------------------2-------------------------|
G|---------------6--7----------2-4------------0-2-4--2-2-0-2-|
D|---0-----7--9-------------5---------------4----------------|
A|-------7----------------5---------------4------------------|
E|-7---9----------------3---------------2--------------------|


e|-----------------------------|  X2      
B|-----------------------------|
G|--------------------6--7-----|
D|----0--------7---9-----------|
A|-----------7-----------------|
E|-7-------9-----------------7\|

e|-------------------------------------------------------77\----|
B|---------------------------------2---------------------77\----|
G|----------------6--7---------2-4------------0-2-4------77\----|
D|---0----7---9--------------5--------------4--------2----------|
A|-------7----------------5---------------4---------------------|
E|-7---9----------------3---------------2-----------------------|


e|--------------------------------------------------------------|
B|-7-8-10-7------7----------------------------------------------|
G|-7--------7---9---7-7-6--------7-9-6-6------7-9---------------|
D|-7----------9----------4----7-----------9-11------------------|      
A|----------------------------7---------------------------------|           
E|----------------------------5---------------------------------|

e|--------------------------------------------------------------|       
B|-------7-8-10-7-------7---------------------------------------|
G|-------7--------7---9---7-7-----------6-7-9-6-7---------------|
D|----7--7----------9----------------7------------9-------------|
A|-5----------------------------9--7----------------------------|
E|--------------------------------------------------------------|  

e|-----------------------------|  X2      
B|-----------------------------|
G|--------------------6--7-----|
D|----0--------7---9-----------|
A|-----------7-----------------|
E|-7-----9-------------------7\|

e|-------------------------------------------------------77\----|
B|----------------------------------2--------------------77\----|
G|---------------6---7---------2-4------------0-2-4------77\----|
D|---0-----7--9-------------5---------------4--------2----------|
A|-------7----------------5---------------4---------------------|
E|-7---9----------------3---------------2-----------------------|

e|------------------------5---------------------------------------------|
B|--7--7--5------------------7--5---------------------------------------|
G|----------6--7--4--6--7----------6--7------------6--------------------|
D|----------------------------------------------------7-----------------|
A|----------------------------------------------------------------------|
E|---------------------------------------7--9--10-----------------------|

e|--------------------------------------------------------------|
B|------------------------------777-----------------------------|
G|------------------------------777-----------------------------|
D|-5------4~---5-3-0-0----------777-----------------------------|
A|----7----------------4-3-2------------------------------------|
E|--------------------------------------------------------------|

e|------------------------5---------------------------------------------|
B|--7--7--5------------------7--5---------------------------------------|
G|----------6--7--4--6--7----------6--7------------6--------------------|
D|----------------------------------------------------7-----------------|
A|----------------------------------------------------------------------|
E|---------------------------------------7--9--10-----------------------|

e|--------------------------------------------------------------|
B|------------------------------777-----------------------------|
G|------------------------------777-----------------------------|
D|-5------4~---5-3-0-0----------777-----------------------------|
A|----7----------------4-3-2------------------------------------|
E|--------------------------------------------------------------|

e|-7-7-5-------------------------7-10-9----------------9-7------------------|
B|-------7-7/8-0----------7-8-10-----------------7--10-----10-8-7-----10-8--|
G|------------------6-7-9----------------------7------------------9---------|
D|------------------------------------------7-------------------------------|
A|-----------------------------------------9--------------------------------|
E|---------------------------------------10---------------------------------|

e|-------5-----------5------------------------XX-------------------|
B|-7-5-7---7-8-7-5-7---7-8-7-5--5-7-------777-XX-------------------|
G|-----------------------------7----7-6^--777-XX-------------------|
D|----------------------------------------777-XX-------------------|
A|--------------------------------------------XX-------------------|
E|--------------------------------------------XX-------------------|

e|------------------------5---------------------------------------------|
B|--7--7--5------------------7--5---------------------------------------|
G|----------6--7--4--6--7----------6--7------------6--------------------|
D|----------------------------------------------------7-----------------|
A|----------------------------------------------------------------------|
E|---------------------------------------7--9--10-----------------------|

e|------------------------------7--------------------------------|
B|------------------------------7--------------------------------|
G|------------------------------8--------------------------------|
D|-5------4~---5-3-0-0----------9--------------------------------|
A|----7----------------4-3-2----9--------------------------------|
E|------------------------------7--------------------------------|

e|--------------------------7-7p6------------------------5-----5-----|
B|----------------7--8-7-8--------8-7----------------5-7---8-7---8-7-|
G|---------7-9-9--------------------------6h7-6/7--------------------|
D|-----8-9-----------------------------------------------------------|
A|-8-9---------------------------------------------------------------|
E|-------------------------------------------------------------------|

e|----------------------------222-----------------------------------|
B|-5/7-7-5-5-----3-5-5\4\3\2--222-----------------------------------|
G|----------------------------333-----------------------------------|
D|----------------------------444-----------------------------------|
A|----------------------------444-----------------------------------|
E|----------------------------222-----------------------------------|

e|--------------------------7-7p6------7p6----------------5-----5-----|
B|-------------------8-7-8---------8-7-----7----------5-7---8-7---8-7-|
G|---------7-9-9------------------------------6h7-6/7-----------------|
D|-----8-9------------------------------------------------------------|
A|-8-9----------------------------------------------------------------|
E|--------------------------------------------------------------------|


e|----------------------------222-----------------------------------|
B|-5/7-7-5-5-----3-5-5\4\3\2--222-----------------------------------|
G|----------------------------333-----------------------------------|
D|----------------------------444-----------------------------------|
A|----------------------------444-----------------------------------|
E|----------------------------222-----------------------------------|

e|-------7-5-----5---------5---------------------------------------|
B|-----------8-7---8-7---5---7-7\----------5-5h7-5-----------------|
G|---------------------6--------------6h7----------7---------------|
D|-8-9------------------------------7------------------------------|
A|--------------------------------5--------------------------------|
E|-----------------------------------------------------------------|

e|-------7-5-----5----------5---------------------------------------|
B|-----------8-7---8-7----5----7-7\-----------5-7-5-----------------|
G|----------------------------------------6-7-------7---------------|
D|--------------------------------------7---------------------------|
A|--8-9-------------------------------5-----------------------------|
E|------------------------------------------------------------------|


e|-------------------------------------0-0----------0----------------------|
B|-7-5---5--3---2----------------------2-2--------3---0------2-3-0---------|
G|-----6------4---2--4--0--2~----------2-2------0----------0---------------|
D|-------------------------------------2-2----0----------------------------|
A|------------------------------2---0--0-0--2------------------------------|
E|----------------------------0---3--------------------------------3-------|

e|--------------7-7\---------------------------------------------|
B|--------------7-7\---------------------------------------------|
G|---2/6-4-0----7-7\---------------------------------------------|
D|-0---------2---------------------------------------------------|
A|---------------------------------------------------------------|
E|---------------------------------------------------------------|

e|------------------------5---------------------------------------------|
B|--7--7--5------------------7--5---------------------------------------|
G|----------6--7--4--6--7----------6--7------------6--------------------|
D|----------------------------------------------------7-----------------|
A|----------------------------------------------------------------------|
E|---------------------------------------7--9--10-----------------------|

e|--------------------------------------------------------------|
B|------------------------------777-----------------------------|
G|------------------------------777-----------------------------|
D|-5------4~---5-3-0-0----------777-----------------------------|
A|----7----------------4-3-2------------------------------------|
E|--------------------------------------------------------------|

e|------------------------5---------------------------------------------|
B|--7--7--5------------------7--5---------------------------------------|
G|----------6--7--4--6--7----------6--7------------6--------------------|
D|----------------------------------------------------7-----------------|
A|----------------------------------------------------------------------|
E|---------------------------------------7--9--10-----------------------|

e|--------------------------------------------------------------|
B|------------------------------777-----------------------------|
G|------------------------------777-----------------------------|
D|-5------4~---5-3-0-0----------777-----------------------------|
A|----7----------------4-3-2------------------------------------|
E|--------------------------------------------------------------|

e|-7---7-5-5---------------10-9-7----9-7----9-7------------------|
B|-----------7-7/8-----7-8--------10-----10-----7----------------|
G|-------------------9-------------------------------------------|
D|---------------------------------------------------------------|
A|---------------------------------------------------------------|
E|---------------------------------------------------------------|

e|---------9-7------7--------------------------------------------|
B|---7-10------10-8---10-8-7------------------777\---------------|
G|-7-------------------------9-8-9999999999\6-777\---------------|
D|--------------------------------------------777\---------------|
A|---------------------------------------------------------------|
E|---------------------------------------------------------------|

e|------------------------5---------------------------------------------|
B|--7--7--5------------------7--5---------------------------------------|
G|----------6--7--4--6--7----------6--7------------6--------------------|
D|----------------------------------------------------7-----------------|
A|----------------------------------------------------------------------|
E|---------------------------------------7--9--10-----------------------|

e|--------------------------------------------------------------|
B|------------------------------777-----------------------------|
G|------------------------------777-----------------------------|
D|-5------4~---5-3-0-0----------777-----------------------------|
A|----7----------------4-3-2------------------------------------|
E|--------------------------------------------------------------|

e|--------------5------------------------------------------------|
B|-7-5------5-7---7---7\5-3-5--77--------------------------------|
G|-----7--7---------7----------77--------------------------------|
D|-----------------------------77--------------------------------|
A|---------------------------------------------------------------|
E|---------------------------------------------------------------|

e|---------------------5----------7-7-------------------3-----------|
B|-7-7-8-7---8-7-8-7-----7---7\5--7-7--5------------------5\3-2-3-3-|
G|-------------------------7------7-7----3-2-0-----4-6--------------|
D|---------------------------------------------4--------------------|
A|------------------------------------------------------------------|
E|------------------------------------------------------------------|

e|---------------------------7----7-5-5-------------5-----5/9-9~-|
B|-2-3-3/7-7\5--77--2/3----3------------8-8-7-7-5-5---5-5--------|
G|--------------77------4-0--------------------------------------|
D|--------------77-----------------------------------------------|
A|---------------------------------------------------------------|
E|---------------------------------------------------------------|

e|------------------------------7-9-10--------------10-9-10-10\5-5\3---|
B|-----------------------7-8-10--------7---7-77------------------------|
G|-------0-0-------6-7-9-------------------7-77------------------------|
D|-9-8--------8-9--------------------------7-77------------------------|
A|---------------------------------------------------------------------|
E|---------------------------------------------------------------------|

e|--------------------10-8-7-10-8-7-10-8-7------------------------|
B|--77---------5-7-8-----------------------10-8-7-----------------|
G|--77-----5-7-------------------------------------9-7------------|
D|--77---7---------------------------------------------10-9-7-----|
A|------------------------------------------------------------10--|
E|----------------------------------------------------------------|

e|-33\-----3-2-0---2-0-----------2--------------------77------------|
B|-33\-----------4-----0-------2----5-3-3\2-2--7\5-3--77------------|
G|-44\---4-------------------3------------------------77------------|
D|-55\---------------------4----------------------------------------|
A|-55\--------------------------------------------------------------|
E|-33\--------------------------------------------------------------|

e|---------------------------------------------------------------|
B|------------5-------------------------77\----------------------|
G|------7-6h7-------4-----2-2/6-4-0-----77\----------------------|
D|----5-----------------0-----------2---77\----------------------|
A|--5------------------------------------------------------------|
E|----------------5---3------------------------------------------|

e|-------------------------------------------------------77\----|
B|----------------------------------2--------------------77\----|
G|---------------6---7---------2-4------------0-2-4------77\----|
D|---0-----7--9-------------5---------------4--------2----------|
A|-------7----------------5---------------4---------------------|
E|-7---9----------------3---------------2-----------------------|

e|------------------------5---------------------------------------------|
B|--7--7--5------------------7--5---------------------------------------|
G|----------6--7--4--6--7----------6--7------------6--------------------|
D|----------------------------------------------------7-----------------|
A|----------------------------------------------------------------------|
E|---------------------------------------7--9--10-----------------------|

e|--------------------------------------------------------------|
B|------------------------------777-----------------------------|
G|------------------------------777-----------------------------|
D|-5------4~---5-3-0-0----------777-----------------------------|
A|----7----------------4-3-2------------------------------------|
E|--------------------------------------------------------------|

e|------------------------5---------------------------------------------|
B|--7--7--5------------------7--5---------------------------------------|
G|----------6--7--4--6--7----------6--7------------6--------------------|
D|----------------------------------------------------7-----------------|
A|----------------------------------------------------------------------|
E|---------------------------------------7--9--10-----------------------|

e|--------------------------------------------------------------|
B|------------------------------777-----------------------------|
G|------------------------------777-----------------------------|
D|-5------4~---5-3-0-0----------777-----------------------------|
A|----7----------------4-3-2------------------------------------|
E|--------------------------------------------------------------|

e|------------------------5---------------------------------------------|
B|--7--7--5------------------7--5---------------------------------------|
G|----------6--7--4--6--7----------6--7------------6--------------------|
D|----------------------------------------------------7-----------------|
A|----------------------------------------------------------------------|
E|---------------------------------------7--9--10-----------------------|

e|-----------------------------|  X2      
B|-----------------------------|
G|--------------------6--7-----|
D|----0--------7---9-----------|
A|-----------7-----------------|
E|-7-------9-----------------7\|

e|---------------------------------------------------------------|
B|------------------------------5----------------8---------------|
G|---------------6-7--------5-7------------5-7-------------------|
D|----0------7-9----------8------------7-8----------5-5-5--------|
A|---------7------------8------------7--------------5-5-5--------|
E|------9-------------6------------5----------------3-3-3--------|

e|-----------------------------|  X2      
B|-----------------------------|
G|--------------------6--7-----|
D|-0---0--------7---9----------|
A|------------7----------------|
E|---7-------9---------------7\|

e|---------------------------------------------------------------|
B|---------------------------7--------8---77\--------------------|
G|---------------6-7-----7-9-----9-11-----77\--------------------|
D|-0---0-----7-9--------------------------99\--------------------|
A|---------7------------------------------99\--------------------|
E|---7---9-------------------------------------------------------|





Comments


Popular Vicente Amigo tabs & chords
Callejon De La Luna Tabs
Cordoba Tabs
El Mandaito Tabs
Gitano De Lucia Tabs
Mensaje Tabs
Morao Tabs
Morente Tabs
My Heart To The Wind Mi Corazon Al Aire Tabs
Tio Arango Tabs


Song lyrics



↑ Back to top | Tablatures and chords are parodies/interpretations of the original songs. You may use it for private study, scholarship, research or language learning purposes only
© 2014 AZChords.com Contact us | Privacy policy | DMCA | Add/correct tabs | Request tabs | Top 50 tabs