>
 >
Cordoba

Cordoba Guitar Tabs

Vicente Amigo - Cordoba chords, tabs, tablatures, lyrics

Guitar lessons | Add/correct | Request | Top 50 tabs Artists:  A B C D E F G H I J K L M N O P Q R S T U V W X Y Z 0-9

Cordoba Guitar Tabs – Vicente Amigo

CD, Sheet music, Poster

Do you like Cordoba? Share with your friends now
Tabs
CORDOBA                                     


Piste 1



                                                                          
E||----------------------|---------------1------|----------1---1---1-----|
B||--------------3-0-----|-------------1-1------|----------1---1---------|
G||--------5-4-2---4-----|-----4---2-0---2--x-0-|----------0---0---------|
D||------2---------------|--1-------------------|--5-4-4h5-5-3-2-----2-3-|
A||----0--------------3--|----------------------|------------------------|
E||----------------------|----------------------|------------------------|


                                                                 
---------0-----------|----------------------|-------------------|
-------0---------0---|--------------3-0-----|----------------0--|
-----1--------1------|--------5h4h2---4-----|-----4--------4-4--|
-----------3---------|------2---------------|--2-------------2--|
---------------------|----0--------------3--|----------------6--|
--0------------------|----------------------|------------4---4--|


                                                                               
-----------------|--------------------|------0-------0----|-------------------|
---------------2-|-----------0h4------|--------------0----|----------------4--|
-----------3h1---|--3------------3----|--------1h0-4-1----|--------------3-3--|
-----------------|--------1-----------|--------------1----|--------4-4h2---4--|
-----------------|-----2--------------|--------------2----|----------------2--|
-----------------|--------------------|--------------0----|-------------------|


                                                                            
----------------------|----------0---0-------|-----------4--4--3--6--7h-6--|
---------0------------|----8-----------8-----|--4--4--4--4--------4--------|
-------1-1------------|------9-----9---------|--4--------4--------4--------|
---2h1---2----------5-|--------8-------------|-----------------------------|
---------2--7h--6h5---|--6-------------------|-----------------------------|
---------0------------|----------------------|--4--------2--------0--------|


                                                                          
--4---------------------|-----0h3---0-------------------|----------------|
-----4-5-7h5-4-5-9h-7-7-|--4------5-5h4-5h4---1-8h5-4-8-|--5--------4----|
------------------------|-------------------4-----------|-----------3----|
------------------------|-------------------------------|-----------1----|
-----7------------------|--6----------------------------|----------------|
------------------------|-------------------------------|-----------3----|


                                                                                
----------4--4h-3--6--7h-6--|--4---------------------|--------0----------------|
----4--4--4--------4--------|-----4-5-7h5-4-5-9h-7-7-|----------7h5-11-7h5---5-|
----------4--------4--------|------------------------|--6--6---------------8---|
----------------------------|------------------------|-------------------------|
----------------------------|------------------------|-------------------------|
----------2--------0--------|------------------------|--6----------------------|


                                                                     
----------------|------------------------|--------------------------|
--8--------7----|-------7-5-------7------|--------7-5-3h2-0-5-------|
-----------7----|-----7-----7-6-4----4---|------4-----------------2-|
-----------4----|----------------------5-|----5-----------------2---|
----------------|------------------------|--------------------------|
-----------7----|---7----------------3---|--3-----------------2-----|


                                                                         
--------------------------|-------------------|-------------------------|
--3h2-----3-------2h0-----|--2h3h2h0-2--------|--0------------0---------|
------4h2-------0-----2h0-|--2----------------|-----1-------1---3h1-----|
------------4-4-----------|-------------------|-------2---2---------4-2-|
--------------------------|-------------------|---------2---------------|
------------3-------------|--2----------------|--0----------------------|


                                                                             
--------------------------|-------------------------|----------------0------|
--------------------------|-------------------------|------4-------4---4----|
--3---------3---3-1h0-----|-------------------------|----3---3---3----------|
------1---1---1-------2h1-|--6--6-6-6-5-6-5-5h2-1-2h|--1-------1------------|
----2---2-----------------|--4----------------------|-----------------------|
--------------------------|--0----------------------|------3----------------|


                                                      
-----------4----3--6--7h-6--|--4---------------------|
--4--4-5-4-4-------4--------|-----4-5-7h5-4-5-9/-7-7-|
--4--------4-------4--------|------------------------|
----------------------------|------------------------|
----------------------------|-----7------------------|
--4--------2-------0--------|------------------------|


                                                                           
-----0h9---0-------------------|----------------|---0-------0-------0-----|
--4------5-5h4-5h4---4h8h5h4-8/|--5--------4----|-----4-------4-------4---|
-------------------7-----------|-----------3----|-------6-3-----6-4-----4-|
-------------------------------|-----------1----|-------------------------|
--6----------------------------|----------------|-------------------------|
-------------------------------|-----------3----|-------------------------|


                                                      
----0-------0-------2-----|----2-------0-------0-----|
------4-------4-------4---|------1-------0-------0---|
--------4-------4-3-----3-|--------3-1h4---1-------0-|
--6-------2---------------|--4---------------4-------|
--------------------------|--------------------------|
--------------------------|--------------------------|


                                                                               
--------------0-3-6h4-6h4-3-|--0-----0-------0-----|----0-------0-------2-----|
------------0---------------|----------4-------4---|------4-------4-------4---|
--------1-3-----------------|------------6-4-----4-|--------4-------4-3-----3-|
------2---------------------|----------------------|--6-------2---------------|
----2-----------------------|----------------------|--------------------------|
--0-------------------------|----------------------|--------------------------|


                                                                         
----2-------0-------0-----|----------------0-4/3h-0-|------------2------|
------4-------0-------0---|----3-----0-2h4---2------|--4------5--2--5h4h|
--------3-1h4---1-------0-|------0-3---------3------|------------2------|
--4---------------2-------|--1---------------1------|------------2------|
--------------------------|-------------------------|------------0------|
--------------------------|-------------------------|-------------------|


                                                                      
---------------0------|----------0-------0-------|-------------------|
--2------2---2-0--4h2h|--0---2h4-----2h4---4h2-0-|--4h2-2h0----------|
-------2---5---4------|----4-------4-------------|--3-------3--------|
----------------------|--------------------------|--4----------------|
----------------------|--------------------------|-------------------|
---------------4------|--------------------------|-------------------|


                                                      
--------------------------|------------------0-------|
----------------0---------|------------0---0---------|
------------3-6---3h6-3---|--------------------------|
------2-4h6-------------6-|------6/8-9---9---9h8h6---|
----2---------------------|----4-------------------9h|
--0-----------------------|--2-----------------------|


                                                                                
--------------------------|------------0-0-0-0-0-0-0--0-|--------0--0-0-0-0-0--|
--------0-----------------|------------4-4-4-4-4-4-4--4-|--------4--4-4-4-4-4--|
------8---3h6-4h1-0h4h1---|------------3-3-3-3-3-3-3--3-|--------3--3-3-3-3-3--|
----6-------------------2-|--2/5-5h2/1-1-1-1-1-1-1-1--1-|--------1--1-1-1-1-1--|
--7-----------------------|------------1-1-1-1-1-1-1--1-|--------1--1-1-1-1-1--|
--------------------------|------------3-3-3-3-3-3-3--3-|--------3--3-3-3-3-3--|


                                                             
------------0--|--0--0--0--0--0------|-------0---0---0---0--|
------------7--|--7--7--7--7--7------|-------------8--------|
------------7--|--7--7--7--7--7------|---------9------------|
------------6--|--6--6--6--6--6------|-----8----------------|
------------7--|--7--7--7--7--7--7-7/|--6-------------------|
------------7--|--7--7--7--7--7------|----------------------|


                                                                          
----------------------|----------------|-----------------|---------------|
----8-8-8-8-8-8-8--8--|----------8--8--|------8--8-----8-|--8------------|
----9-9-9-9-9-9-9--9--|----------9--9--|------9--9-----9-|--9------------|
----8-8-8-8-8-8-8--8--|----------8--8--|------8--8-----8-|--8------------|
----6-6-6-6-6-6-7--6--|----------7--6--|------7--6-----6-|--6------------|
----------------------|----------------|-----------------|---------------|


                                                    
----0-------0---0---------|------------------0h2-4-|
----8-------8---------7h5-|--4/5-4h2-4-----4-------|
--8---8h9-6---8---4h6-----|--4-----------4---------|
--------------------------|------------------------|
--------------------------|------------------------|
--------------------------|--4---------------------|


                                                                            
--4h6h4-4h2-2h0-0-----------|--0----------------|--------------------------|
------------------4-4h2-2h0-|--0h4-2h0-2--------|--0-----2h0-------0-2-----|
----------------------------|--3----------------|----1-------1---3-----3---|
----------------------------|--4----------------|------1-------1-----------|
----------------------------|-------------------|------------------------2-|
----------------------------|-------------------|--0-----------------------|


                                                                          
------------------------|------------------------|---------------0-------|
------------------------|------------------------|-----4-------4---2h4---|
-------4h3-----1-3-4-1--|-------3h0-4-1----------|--3----3---3-----------|
---1-------4------------|---2-----------2-1h2-1--|---------1-------------|
-----2-------2----------|-----2------------------|-----------------------|
---------------------0--|------------------------|-----------------------|


                                                                               
----0-------0---0---------|------------------0h3-4-|--4/9-7-7/6-7h6-6/4-4/2-2h|
----8-------8---------7h5-|--4/5-4h2-4-----4-------|--------------------------|
--8---8-9h6---8---4h6-----|--4-----------4---------|--------------------------|
--------------------------|------------------------|--------------------------|
--------------------------|------------------------|--------------------------|
--------------------------|--4---------------------|--------------------------|


                                                                            
--4-4/6h-7h6-6h4/2--2--|-------------------------|-------------------------|
--------------------4--|-------------------------|-------------------------|
--------------------3--|-------------------------|-------------------------|
-----------------------|--6h8-6h8-6h8-6h8-4h6-4--|-----4h6-4h6-4h6---------|
--------------------2--|--4----------------------|-----4--------------7h10-|
-----------------------|--0----------------------|--2--------------0-------|


                                                          
------------------------------|----0---0---0---0---0-0-0-|
------------------------------|--------------8-----8-8-8-|
------------------------------|----------9-------x-9-9-9-|
--------------6-8h6-6---------|------8-------------8-8-8-|
--7h10-6h7h10---7-----10-10h7-|--6-----------------6-6-6-|
----------------9-------------|--------------------------|


                                                   
-------------------------|------------------0-0---|
-------------------------|------------------------|
-------------------------|------------------------|
--6h8-6h8-6h8-6h8---4h6--|--4h6-4h6-4h6-----------|
--4----------------------|----------------------7h|
--0---------------2------|--------------0---------|


                                                       
-----------------------------|----0---0---0---0----0--|
-----------------------------|--------------8---x-----|
-----------------------------|----------9-------------|
---------6-9h8-8h6-6---------|------8-----------------|
--6-7h10---7---------10-10h7h|--6---------------------|
-----------------------------|------------------------|


                                                        
|-----0-------0-------------|--------------------------|
|-------2-------2---4h2h0---|----------0-------2h0-----|
|*--2-----4-6-----4-------2h|--1-----3---1---1-----3h1-|
|*--------------------------|----4---------1-----------|
|---------------------------|------2-------------------|
|---------------------------|--------------------------|


                                                                    
--------------------------|--------------0-0-----||--0----0--------|
--------------------------|------------0---------||--0----0--------|
--------------------------|----------4----------*||--4----4--------|
------6/9-8h9-8-8-8h6-6-6-|--6/---2-------------*||--2----2--------|
----4---------------------|----------------------||----------------|
--2-----------------------|----------------------||----------------|


                                                            
------------------|------------------|---------------------|
------------------|------------------|---------------------|
------------------|------------------|---------------------|
-----------9-8/---|-----------8-6/---|----4----3h4-4h2-2/1-|
---------6---6/---|---------6---4/---|----2----------------|
-------7----------|-------7----------|----0----------------|


                                                                    
-----------0---0-----|----0-0-0-0-0-0-0------|---------------------|
-------4-----4-------|----8-8-8-8-8-8-8---8--|----8--8--8---8--8---|
---------3-----------|----9-9-9-9-9-9-9---9--|----9--9--9---9--9---|
--2h1----------------|----8-8-8-8-8-8-8---8--|----8--8--8---8--8---|
---------------------|----6-6-6-6-6-6-6/7-6--|----6--7--7/6-6--7/6-|
---------------------|-----------------------|---------------------|


                                                                    
-----------------------|---------------|-----------------------0---|
--6---6---6--6---8--8--|--8------------|----0--------0-----0-------|
--9---9---9--9---9--9--|--9------------|----0--------0-----0-------|
--8---8---8--8---8--8--|--8------------|------8--------8---8-------|
--6/7-7/6-6--7/6-6--7--|--6------------|--9-----9h10-----9-10----9h|
-----------------------|---------------|---------------------------|


                                                                              
-----------------------|----------------------------|---------0---0-------0--|
----0-------0-----0----|----------------------------|-----------------6------|
----0-------0-----0----|----------------------------|---------------9--------|
------8-------8---8----|----------------------------|-----------8------------|
--7-----7h9-----7-9----|--6h7-7h9-9/10-10/9-9h7-7h6-|--10h7h6----------------|
-----------------------|----------------------------|------------------------|


                                                                                
--------------------------|---------------------0---|--------------------------|
----0--------0-----0------|------------5-----5------|----5-------5-------5-----|
----0--------0-----0------|----5-------5-----5------|----5-------5-------5-----|
------8--------8---8------|------5-------5---5------|------5-------5-------5---|
--9-----9h10-----9-10/----|--7-----7h9-----7-9h---7h|--6-----6h7-----6h7-----6-|
------------------------5-|-------------------------|--------------------------|


                                                         
------------------0------------|------------------------|
--5-------------0---0----------|------------------------|
--5-----------5-------5--------|--------0---0-----------|
--5---------4-----------4------|------5---4-----4-------|
--7h6-6/3h2---------------2----|----3---------7-7/6-6h3/|
-------------------------------|------------------------|


                                                                          
----0-0-------------------|----0-0-0-0-0-0-0-0-------|--4----------------|
--------------------------|----0-0-0-0-0-0-0-0-------|--4----------------|
----------0---0-----------|----5-5-5-5-5-5-5-5-------|--4----------------|
--------5---4-----4-------|----4-4-4-4-4-4-4-4-------|--6--------4-4-----|
--2-------------7-7/6-6h3/|--2-2-2-2-2-2-2-2-2-3h2h0-|--6--------6-4-----|
--------------------------|--------------------------|--4--------4---6-7-|


                                                                               
--------------------------|-------------------------|-------------------------|
--------------------------|-------------------------|-------------------------|
--------------6-8---------|-------------6-----------|-------------------------|
--------6-8-9-----9h8-8h6-|--8------6h8---9-8h6-9-6-|--6h5-5-5-5/-2-2-2/1-2h1-|
--7-7-9-----------6-------|-------6---------4-------|-------------------------|
--0-7-------------7-------|-----7-----------0-------|-------------------------|


                                                                          
------------0---0---0-0-|----0---0--0-0----3h0-|--0--0-------------3-3h0-|
--------4-----4---------|----4h2-4--4-4-2--2---|--4----4h2h4-4h2-2-------|
----------3-------------|----6---3--3-3-3--3---|--3----------3---3-------|
--5h2-1-----------------|----1---1--1-1-1--1---|--1----------1---1-------|
------------------------|----------------------|-------------------------|
------------------------|----------------------|-------------------------|


                                                                        
--0---------3-3h0-0------|---------------|-----------4--4--3--6--7h-6--|
--2-4-4h2-2-------2--2h4-|--4------------|--4--4--4--4--------4--------|
--3-------3-------3------|--3------------|--4--------4--------4--------|
--1-------1-------1------|--1------------|-----------------------------|
-------------------------|---------------|-----------------------------|
-------------------------|---------------|--4--------2--------0--------|


                                                                          
--4---------------------|-----0h3---0-------------------|----------------|
-----4-5-7h5-4-5-9h-7-7-|--4------5-5h4-5h4---1-8h5-4-8-|--5--------4----|
------------------------|-------------------4-----------|-----------3----|
------------------------|-------------------------------|-----------1----|
-----7------------------|--6----------------------------|----------------|
------------------------|-------------------------------|-----------3----|


                                                                               
----------4--4h-3--6--7h-6--|--4---------------------|-------0----------------|
----4--4--4--------4--------|-----4-5-7h5-4-5-9/-7-7-|---------7h5h11-7/5---5-|
----------4--------4--------|------------------------|--------------------8---|
----------------------------|------------------------|-----4------------------|
----------------------------|-----7------------------|------------------------|
----------2--------0--------|------------------------|------------------------|


                                                                     
----------------|------------------------|--------------------------|
--8--------7----|-------7-5-------7------|--------7-5-3h2-0-5-------|
-----------7----|-----7-----7-6-4----4---|------4-----------------2-|
-----------4----|----------------------5-|----5-----------------2---|
----------------|------------------------|--------------------------|
-----------7----|---7--------------------|--3-----------------2-----|


                                                                         
--------------------------|-------------------|-------------------------|
--3h2-----3-------2h0-----|--2h3h2h0-2--------|--0------------0---------|
------4h2-------0-----2h0-|--2----------------|-----1-------1---3h1-----|
------------4-4-----------|-------------------|-------1---1---------4---|
--------------------------|-------------------|---------2-------------2-|
------------3-------------|--2----------------|--0----------------------|


                                                                              
--------------------------|--------------------------|----------------0------|
--------------------------|--------------------------|------4-------4---4----|
--3---------3---3-1-------|--------------------------|----3---3---3----------|
------1---1---1-----5-2h1-|--6-6-6-6/5-5-5-5-5h2-1-2h|--1-------1------------|
----2---2-----------------|--4-----------------------|-----------------------|
--------------------------|--0-----------------------|------3----------------|


                                                                                
-----------4--4--3--6--7h-6--|--4---------------------|-------0----------------|
--4--4--4--4--------4--------|-----4-5-7h5-7-5-9/-7-7-|---------7h5/11-7/5---5-|
--4--------4--------4--------|------------------------|--------------------8---|
-----------------------------|------------------------|-----4------------------|
-----------------------------|-----7------------------|------------------------|
--4--------2--------0--------|------------------------|------------------------|


                                                                         
----------------|-----------------------|--------------7-10-14/12-12h10-|
--8--------7----|------8h7-6-7-10h8-8h7-|--8-------7-8------------------|
-----------7----|-----------------------|--------9----------------------|
-----------4----|-----------------------|------9------------------------|
----------------|-----------------------|----7--------------------------|
-----------7----|-----------------------|-------------------------------|


                                                            
--12h10-10h9-10h9-9/7-7/5-5h7-|--7/9h10h9-10h9-7/5----5----|
------------------------------|--------------------7--7----|
------------------------------|-----------------------6----|
------------------------------|--0-------------------------|
------------------------------|----------------------------|
------------------------------|----------------------------|


                                                                        
------5h4-5-8-5h4-----|-----------------------|----4-------4-4-4-------|
------------------7h6-|--7--------------------|----------5---5-5-0-----|
----------------------|-----------------------|--------6-----6-6-4-----|
----------------------|-------------4h6-4-----|------6-------6-6-5-----|
--------------4-------|------4--5-8-------8-5h|--4---------------5-----|
----------------------|-----------------------|------------------9h--5h|


                                                                          
----------------------|---------------------0---|------------------------|
----------------0-----|-----------0-----0-------|----0-------0-----0-----|
--------------3-------|-----------0-----0-------|----0-------0-----0-----|
------------5---------|----8--------8---8-------|------8-------8---8-----|
----------4-----------|------9h10-----9-10----9h|--7-----7h9-----7-9---7/|
--3-6h3/2-------------|-------------------------|------------------------|


                                                        
----------------------------|--4--------4--------------|
----------------------------|--4----------4------------|
----------------------------|--4------------4----------|
----------------------------|--4--------------4--------|
--6h7-7h9-9/10-10/9-9h7-7/6-|--6h--4h6----------6------|
----------------------------|--4------------------4----|


                                                      
------------------2-----0-|--------------------------|
--5-----4-5-----4---0-----|--3-----2-3-----2-5-----4-|
----4-------4---------4---|----3-------3-------3-----|
------5-------5-----------|------2-------2-------2---|
--------------------------|--------------------------|
--------------------------|------------------2-------|


                                                                                
--------------------------|-------------------------|------------------2-----0-|
--4-----2-4-----2-5-----4-|--4-----2-4-----2-4------|--5-----4-5-----4---0-----|
----6-------6-------2-----|----2-------2-------2----|----4-------4---------4---|
------4-------4-------2---|------6-------6-------6--|------5-------5-----------|
--2-----------------------|-------------------------|--------------------------|
--------------------------|--4----------------------|--------------------------|


                                                      
--------------------------|--------------------------|
--3-----2-3-----2-5-----4-|--4-----2-4-----2-5-----4-|
----3-------3-------3-----|----6-------6-------2-----|
------2-------2-------2---|------4-------4-------2---|
--------------------------|--2-----------------------|
--------------------------|------------------2-------|


                                                      
--------------------------|------------------------0-|
--4-------2-4-------------|--5-----4-5-----4-7---0---|
------2-------2---2-4-----|----4-------4-------4-----|
----6---6-------6-----2---|------5-------5-----------|
------------------------6-|--------------------------|
--4-----------------------|--------------------------|


                                                                               
--------------------------|--------------------------|------------------------|
--3-----2-3-----2-5-----4-|--4-----2-4-----2-5-----4-|--4-------2-4-----2--4--|
----3-------3-------3-----|----6-------6-------2-----|------2-------2---------|
------2-------2-------2---|------4-------4-------2---|----6---6-------6-------|
--------------------------|--2-----------------------|------------------------|
------------------2-------|--------------------------|--4---------------------|


                                                                       
--------------------------|----------------------|--------------------|
----------0-----2---------|--------------0-------|--------------------|
--------4---3-1---3-------|----3-3---1h0---------|--------------------|
------2-----------------1-|--1-------------6h--5-|--4--3--4-----2h1-5h|
----6---------------2-2---|----------------2-----|--------2-----------|
--4-----------------------|----------------0-----|--------0-----------|


                                                                 
------------0------|-------------------------|------------------|
--------4----------|----------0-----2--------|-----------0------|
----------9--------|--------4---3-1---3------|-------1h0--------|
--2h--1------------|------2------------------|-------------6----|
-------------------|----6---------------2-2--|-------------2----|
-------------------|--4----------------------|-------------0----|


                                                                      
----------------------|------------0-------|-------------------------|
----------------------|--------4-----4-----|----------0-----2--------|
----------------------|----------6---------|--------4---3-1---3------|
--4--3h4-4h2-2/---1-5-|--2h--1-------------|------2------------------|
--2-------------------|--------------------|----6---------------2-2--|
--0-------------------|--------------------|--4----------------------|


                                                                                
---------------|-----------------|--------------------|------------------------|
---------------|---------------1-|--------------------|----------------0-------|
----------3----|-----------2-0---|--2--------2h3-2----|--------2---1-----1-----|
----------1----|-----------------|--------0-----------|------3---3---3-------2-|
----------5----|-----------------|-----1--------------|----3-------------------|
----------3----|-----------------|--------------------|--1---------------0-----|


                                                                                
------------------|----------1---------------------1-----------|--0------------|
------------------|--------1---1-----------------1---1---------|--0------------|
------------------|------0-------0-0h2h4h2h0h2h4-------4h2h0---|--1------------|
-----2h3h2--------|----3-------------------------------------3-|--3------------|
--2---------------|--------------------------------------------|--2------------|
------------------|--------------------------------------------|--0------------|


        
------||
------||
------||
------||
------||
------||





Comments


Popular Vicente Amigo tabs & chords
Callejon De La Luna Tabs
Demi Corazon Al Aire Tabs
El Mandaito Tabs
Gitano De Lucia Tabs
Mensaje Tabs
Morao Tabs
Morente Tabs
My Heart To The Wind Mi Corazon Al Aire Tabs
Tio Arango Tabs


Song lyrics



↑ Back to top | Tablatures and chords are parodies/interpretations of the original songs. You may use it for private study, scholarship, research or language learning purposes only
© 2014 AZChords.com Contact us | Privacy policy | DMCA | Add/correct tabs | Request tabs | Top 50 tabs