>
 >
Callejon De La Luna

Callejon De La Luna Guitar Tabs

Vicente Amigo - Callejon De La Luna chords, tabs, tablatures, lyrics

Guitar lessons | Add/correct | Request | Top 50 tabs Artists:  A B C D E F G H I J K L M N O P Q R S T U V W X Y Z 0-9

Callejon De La Luna Guitar Tabs – Vicente Amigo

CD, Sheet music, Poster

Do you like Callejon De La Luna? Share with your friends now
Tabs
Gallejon de la luna                               


                                                                   Vicente Amigo
 (Capo 1)



                                                                            
E||---------------0-----------|--------------------------|----------------||
B||-------0h2-3h2---3-2h0-2h3-|------2h3-----2h3-----2h3-|----------------||
G||*--------------------------|----------4-------4-------|--4------------*||
D||*----4---------------------|----4-------4-------4-----|---------------*||
A||---2-----------------------|--------------------------|----------------||
E||---------------------------|--3-----------------------|----------------||


                                                                            
--------------------------|--------------------------|---------------------|
------0-2/3-0-2h0---------|--------------------------|---------------------|
----2-------------4h2h0---|--2-----2h0---2h0---2h0---|--2-0-----2h-0---0---|
--2---------------------4-|------0-----0-----0-----0-|---------------4---4-|
--------------------------|--------------------------|---------------------|
--------------------------|----3---------------------|---------------------|


                                                                               
------------------------0-|--------2h-0---0-3h-2-0h2-|--5h-3-2h0-----7h-5-----|
------------------0-2h3---|------0------3------------|-----------3h2------8h7-|
--------------0h3---------|----0---------------------|------------------------|
--2h0---0h2-4-------------|--------------------------|------------------------|
------4-------------------|--------------------------|------------------------|
--------------------------|--3-----------------------|------------------------|


                                                   
------9h-7-----------10h-9h|--7-------------------|
--5--------10-8h7----------|----10h8---0---8------|
----7-------------10-------|-------------0--------|
---------------------------|----------------------|
---------------------------|---------7------------|
---------------------------|----------------------|


                                                         
----------9h7-10h9-12h10-7h9-|--------------------------|
--7h8-7h8--------------------|--10h7-10h8-8---0---8-----|
-----------------------------|------------------0-------|
-----------------------------|--------------------------|
-----------------------------|--------------7-----------|
-----------------------------|--------------------------|


                                                                                
----------9h7-10h9-12h10-7h9-|-----------------------|-------------------------|
--7h8-7h8--------------------|--10h7-10h8-8----------|--------------7--7/-8----|
-----------------------------|---------------11------|-----------0-------------|
-----------------------------|---------------11------|--------8----------------|
-----------------------------|---------------10------|-----9-------------------|
-----------------------------|---------------9-------|--9----------------------|


                                                        
--------------|-------------------------|--------------|
--------------|--------------7--7/-8----|--------------|
--------------|-----------0-------------|--------------|
--------------|--------8----------------|--------------|
--------------|-----9-------------------|--------------|
--------------|--9----------------------|--------------|


                                                             
-------------------------|--------------|--------0----------|
--------------7--7/-8----|--------------|------7---7--------|
-----------0-------------|--------------|----6--------------|
--------8----------------|--------------|--5----------------|
-----9-------------------|--------------|-------------------|
--9----------------------|--------------|-------------------|


                                                                           
-------------------------|---------------------|--------------------0---2-|
--------0--3h0-----0-----|--0-----0-----0------|--3h0-----------0h3-------|
------4--------4-----4---|----4-----4----------|------4-------4-----------|
----4------------4-----4-|------4-----4--------|--------4---4-------------|
--2----------------------|---------------------|----------2---------------|
-------------------------|---------------------|----------------------3---|


                                                                 
------3h-0--2-----3h-0--2-|------3h-0--2-----|---------2--------|
---0-----------0----------|---0--------------|-------0----------|
--------------------------|------------------|-----0------------|
--------------------------|------------------|------------------|
--------------------------|------------------|------------------|
--------------------------|------------------|--3---------------|


                                                                 
--3-5-2----------|--------2--------3--------2h-|--3--2----------|
-----------------|-----2--------2--------2-----|----------------|
-----------------|--0--------0-----------------|----------------|
-----------------|--------------------4--------|----------------|
-----------------|-----------------------------|----------------|
-----------------|-----------------------------|----------------|


                                                                               
--3-5-6-2---------|-----------2h-0--2-----0h-2--|-----0-----0h-2-----0h-2-----|
------------------|--------3-----------3--------|--3-----3--------3--------3--|
------------------|-----------------------------|-----------------------------|
------------------|-----0-----------------------|-----------------------------|
------------------|--0--------------------------|-----------------------------|
------------------|-----------------------------|-----------------------------|


                                                                                
--0h-2-----0h-2--------|----------------2h5-------|--10------9-----7h9h7-------|
--------3-------3------|--3-----------3---------8-|------8-----8-------------5-|
-----------------------|----2-------2---------7---|--------7-----7-------0h6---|
-----------------------|----------0---------------|----------------------------|
-----------------------|------0h5-----------7-----|----------------------------|
-----------------------|--------------------------|----------------------------|


                                                                                
--5-7h9---5--2---0h2-----|--------------------------|----------------------0---|
---------------3-----3-0-|--2h3-0-----0-------------|--------------------3---2-|
-------------------------|--------0h2---0-----0-----|--------------2-----------|
--------0----------------|----------------2h4---4h3-|--2h0---0---4-----4-------|
-------------------------|--------------------------|------4h--5---------------|
-------------------------|--------------------------|----------------2---------|


                                                                             
-----------------------|----0h2-2/3-2h5-3h2------|--------------------------|
---------------------1-|--3-----------------3-3--|-------0-----------0h2-3--|
--2h0--------------0---|-------------------------|----2----2h0---0h2--------|
------4h2h0------------|-------------------------|-------------4------------|
------------4h3--------|-------------------------|--------------------------|
-----------------------|-------------------------|--------------------------|


                                                             
--------0h2-------------|-------------------|---------------|
------3-----3h0-2h3h0-3h|--2-2--------------|----2----------|
----2-------------------|----------------1--|---------------|
------------------------|-----------0-------|---------------|
------------------------|------4------------|---------------|
------------------------|-------------------|---------------|


                                                                               
--------------------------|-------------------------|---------------0---------|
--------0h3-2h0-----------|---------------------0h3-|--1----------1---3-3h1---|
------0---------3h0---3h0-|-----------------0h3-----|-----------2-----------2-|
----4---------------4-----|---4h3h0---0h3h4---------|---------0---------------|
--4-----------------------|---------4---------------|-------0-----------------|
--------------------------|-------------------------|-----2-------------------|


                                                                           
-----------------------|-------------------------|------------------------|
--0-3h1h0---0----------|--0---2h0----------0-----|------------------------|
---------------------0-|----3----------2h1---2---|-----0---2h0----------0-|
-------------------0---|-------------2-----------|---0---4--------4---4h--|
-----------------2-----|----------0--------------|------------------4-----|
----------3------------|-----------------------3-|-------------2----------|


                                                                             
-----------------------|--------------------------|----------0--------------|
-----------------------|--------------------------|--------0---0------------|
----0------------------|--------------------------|------0-------0----------|
--3-------4------------|--------------------------|----------------4--------|
--------4--------------|--------------------------|-------------------------|
------2--------2h3h2h0-|--2h3h2h0h2h3h2h3h2h0h2h3h|--2-0--------------0h2h3h|


                                                                                
------------------|-------------------|--------------0----------|--------------|
------------------|-------------------|------------0---0--------|--------------|
------------------|-------------------|----------0-------0------|--------------|
------------------|-------------------|-------------------------|--------------|
------------------|-------------------|-------------------------|--------------|
--2-2h3h2---------|---------3h2h0h2h3-|--2-0h2h3-----------3h2--|--------------|


                                                       
|---------------------------|-------------------------|
|---------0-----------------|--0-------0--------2h0---|
|*----3h0----0h3------------|----3-------3----3-----4-|
|*--4------------4---2h-4h2-|------2h4-----2----------|
|---------------------------|-------------------------|
|------------------0--------|-------------------------|


                                                                               
----------------0h2--0---|------0-------------------|-------------------------|
--3---------2h3--------3-|--2-----3h2h0-------0-2/3-|--0----------------------|
----0--------------------|------------------2-------|----2-----0------2-0h4h0-|
------4---4--------------|----------------2---------|--------0----5-4---------|
--------2----------------|----1---------0-----------|-------------------------|
-------------------------|--------------------------|------3------------------|


                                                                      
---------------||----7----------0----0h7h0-|----5h3h0------------5---|
---------------||------8h10-7--------------|-------------------3---3-|
--------------*||--7---------------0-------|--0-------0------0-------|
--------------*||--------------------------|---------------4---------|
---------------||-------------7------------|-------------2-----------|
---------------||--------------------------|-------------------------|


                                                                               
----3h2-----3--------3---|----2h0-----2------------|--------------------------|
--------3----------2---2-|--------2-----0h-2h0-----|--------------------------|
--0-------0------0-------|--0-------0----------0---|--2h0---0---------------0-|
---------------2---------|-----------------------0-|------4---4h2h0---0h2h4---|
-------------------------|-------------------------|----------------4---------|
-------------------------|-------------------------|--------------------------|


                                                                             
----------0-2-3-5-7-10-9-9-|--7-7---------------------|---------------------|
----0-2-3------------------|------8-8---------0-0-----|--------------2------|
--3------------------------|----------9-9-7-7-----0-0-|--------------1------|
---------------------------|--------------------------|--2-2-0-0-----3------|
---------------------------|--------------------------|----------4-4-4------|
---------------------------|--------------------------|---------------------|


                                                                            
------------------------|--------------------------|-----------------------|
------------------------|--------------------------|-----------------------|
------------------------|--------------------------|------------0-0--------|
----3h0----3h0---3h0----|--3h0---3h0---2---2h0---0-|------------0-0--------|
--4-----4------4-----4--|------4-----4---4-----2---|--4h0-4h2---2-2----1---|
------------------------|--------------------------|----------3-3-3------3-|


                                                                          
-----------------------|------------------------|------------------------|
--------0--------------|-----------0------------|------------------------|
------0----------------|-------2h1---2------0---|--2h0----------2h0------|
----0------------------|-----2------------0---4-|-----------2h4----------|
--2------------2-1h4-2-|--0---------------------|---------2------------4-|
-------------0---------|---------------3--------|------0------------2----|


                                                                           
----------------------|-------------------------|-------------------------|
----------------------|-------------------------|----------0-2--0---0-2-3-|
----0---0-------------|----0---0---0------------|------1-3--------3-------|
--4---2---4-----4-----|--3---4---2---4h-3h0---0-|--3-4--------------------|
--------------4-------|---------------------4---|-------------------------|
------------2---------|-------------------------|-------------------------|


                                                    
--2h0---0-2h-0-3h2-5h3-2-|-------3-----2-----2-----|
------3------------------|---2-----2-----2-----2---|
-------------------------|-----0-----------------0-|
-------------------------|-----------0-----4-------|
-------------------------|-------------------------|
-------------------------|-------------------------|


                                                        
--0---------------0---------|--------------------------|
----2-----3---------3-----2-|-------0--2h0-------------|
--------------0-------0-----|---0----------0---2h0---0-|
------0-----4---4-------4---|-----4----------0-----4---|
--------2-------------------|--------------------------|
----------------------------|--------------------------|


                                                                
-----------0-2-3-5------5-----7h9h|---7-----------5h-7h5-----5-|
-----0-2-3----------5-----5-------|-----5-------5--------5-----|
---3------------------6-----6-----|-------6---6------------6---|
----------------------------------|----------------------------|
----------------------------------|----------------------------|
----------------------------------|---------5------------------|


                                                             
-------3-------2-----3h2---|----0---------------------------|
---5-----2-------2-------2-|------2---3-----2-0-------------|
-----6-----2-------2-------|--2---------2-------0h2h0-------|
-------------0-------------|--------0-----0-----------4-5-7-|
---------------------------|--------------------------------|
---------------------------|--------------------------------|


                                                                      
--------------5-7-----9h10h9-----7---|-----12-----12------10-------9-|
--------5-7-8-----8----------8-----8-|-----------------------8-------|
--4-6-7-------------0----------0-----|---0----12-----12-0------0-----|
-------------------------------------|-------------------------------|
-------------------------------------|---------------------------0---|
-------------------------------------|-------------------------------|


                                                         
--------9h0---7h9h7---------5-|---7-5-----7-------5-----|
--------------------------5---|-------5-------5-----0---|
---9--------6-----------6-----|---------6---6---6-----0-|
-----11---------------5-------|-------------------------|
------------------------------|-------------------------|
--------------------5---------|-------------------------|


                                                                              
--------10---9-----7-------|----5------3---------2--|----------------2h--0---|
------8----8---8-----0-----|--3----3-----3----------|--2-----------2-------5-|
----0------------0-----0---|---------0-----0--------|----3h0---0h3-----------|
-------------------------5-|-----------------5h4----|--------4---------------|
---------------------------|------------------------|------------------------|
--0------------------------|------------------------|------------------------|


                                                                                
--------------------------|-------------------------|----------2h0---0-2h0-3h2-|
--3-2h0-------------------|------------------0h2h-0-|----0-2-3-----3-----------|
--------2h0---0-----------|------0h3h0---0h3--------|--3-----------------------|
------------4---4h2-0---0-|--2-4-------4------------|--------------------------|
----------------------4---|-------------------------|--------------------------|
--------------------------|-------------------------|--------------------------|


                                                      
--5h3---2-2-2-2---0-0-0-0-|--------------7-7-7-7---5-|
--------------------------|----3-3-3-3---------------|
--------------------------|----------------------6---|
------0-------------------|--------------------------|
----------------4---------|--2-----------------------|
--------------------------|------------3-------------|


                                                        
--5-5-5---3-3-3-3---9-9-9-|--9---7-7h9h7---5-5h9h7h5---|
--------------------------|----------------------------|
--------4-----------------|----0---------6-------------|
--------------------------|--------------------------0-|
------------------0-------|----------------------------|
--------------------------|----------------------------|


                                                      
--5-5-5-5---3-3h5h3---3-3h|--2h0---7-7-7-7---5-5-5-5-|
--------------------------|--------------------------|
----------2---------------|----------------5---------|
--------------------4-----|------4-------------------|
--------------------------|--------------------------|
--------------------------|--------------------------|


                                                      
----4-4h7h4---3-3-3-3---2-|--2-2-2---0-0-0-0---------|
--------------------------|--------------------3-3-3-|
--4-----------------------|--------------------------|
----------------------0---|--------------------------|
------------2-------------|--------4---------2-------|
--------------------------|--------------------------|


                                                       
--------------------------|---------------------------|
--3---2-2-2-2---0-0-0-0---|-------------0-0-0-0---2-2-|
--------------------------|---3-3-3-3-----------------|
----4---------------------|---------------------4-----|
--------------------------|---------------------------|
--------------3---------2-|-----------3---------------|


                                                        
-------------------0-0-0-0-|-----2-2-2-2---0-0-0-0-----|
---2-2---3-3-3-3-----------|-------------------------3-|
-------0-------------------|---------------------------|
-----------------2---------|---0-----------------------|
---------------------------|-------------4---------2---|
---------------------------|---------------------------|


                                                        
-----------7-7-7-7---5-5-5-|---5---3-3-3-3---9-9-9-9---|
---3-3-3-------------------|---------------------------|
-------------------6-------|-----4-------------------0-|
---------------------------|---------------------------|
---------------------------|---------------0-----------|
---------3-----------------|---------------------------|


                                                                 
---7-7h9h7---5-5-5-5---0-0-|---0-0---14-14-14-14----14-14-14-14-|
---------------------------|------------------------------------|
-----------6---------6-----|---------------------11-------------|
---------------------------|-------0----------------------------|
---------------------------|------------------------------------|
---------------------------|------------------------------------|


                                                                               
------14h12-12-12-12---10-10-10-10----|---12-12-12-12----10-10-10-10----15-15-|
--------------------------------------|---------------10----------------------|
---14------------------------------11-|------------------------------11-------|
---------------------0----------------|---------------------------------------|
--------------------------------------|---------------------------------------|
--------------------------------------|---------------------------------------|


                                                                              
---15-15----14-14-14-14---12-12-12-12-|------12-12-12-12----14-14-14-14---10-|
--------------------------------------|--------------------------------------|
---------14---------------------------|---11-------------14------------------|
------------------------0-------------|--------------------------------------|
--------------------------------------|---------------------------------0----|
--------------------------------------|--------------------------------------|


                                                                  
--10-10-10-10---10-10-10-10---7-7-9-|-------------5h-7h5-------0-|
------------------------------------|---7-------5--------5-------|
--------------0-------------6-------|---------6------------6h7---|
------------------------------------|-------5--------------------|
------------------------------------|----------------------------|
------------------------------------|-----5----------------------|


                                                            
---2-3-5---7-7-7-7---7-7-7-|---7---5-5-5-5---10-10-10-10---|
---------------------------|-------------------------------|
-------------------0-------|-----6-----------------------0-|
---------------------------|-------------------------------|
---------0-----------------|---------------0---------------|
---------------------------|-------------------------------|


                                                            
---10-10-10-10---9-9-9-9---5-5-|---5-5---5-5-5-5---3-3h5-3-|
-------------------------------|-----------------2---------|
---------------6---------------|-------2-------------------|
-------------------------0-----|---------------------------|
-------------------------------|---------------------------|
-------------------------------|---------------------------|


                                                        
-----2-2-2-2---2-2-4h2---2-|---2-2h0---0-0-0-0---7-7-7-|
-----------------------2---|---------------------------|
-------------2-------------|-------------------0-------|
---------------------------|---------------------------|
---0-----------------------|---------3-----------------|
---------------------------|---------------------------|


                                                        
---7---5-5-5-5---3-3h7h3---|---2-2-2-2---0-0-0-0---2-2-|
-----0-------------------1-|-----------0---------------|
---------------0-----------|---------------------------|
---------------------------|---------------------------|
---------------------------|---------------------2-----|
---------------------------|---------------------------|


                                                        
---2-2---2-2-2-2---2-2-2-2-|-----2-2-2-2---2-2-2-2---0-|
---------------------------|---------------------------|
-------0-------------------|-------------0-------------|
-----------------4---------|-----------------------4---|
---------------------------|---2-----------------------|
---------------------------|---------------------------|


                                                                                
---0-0-0----------------|--------------------------|-------------------0-------|
------------------------|--------------------------|-------------------------3-|
------------------------|--------------------------|-----------------2---1h0---|
-----------2h---0-------|-------0h4h0--------------|-----2-----2---------------|
---------0--------4h2h0-|---2h4-------4h-2h0---0---|---4-----4-----4-----------|
------------------------|--------------------4---5-|-------0-----0-------------|


                                                                       
-----2h0-7h5-----------0--3-|---2--2--3--0--0--3-|---2--2--3--0--3--2-|
---2---------8h7-5-----1--1-|---1--1--1--1--1--1-|---1--1--1--1--1--1-|
-------------------7h6-0--0-|---0--0--0--0--0--0-|---0--0--0--0--0--0-|
----------------------------|--------------------|--------------------|
----------------------------|--------------------|--------------------|
----------------------------|--------------------|--------------------|


                                                                       
---2--3--0-------|---------0---------------|------------0h2-3-5h3-2h0-|
---1--1--1-------|-------1---4h3-1h0-------|------0h1-3---------------|
---0--0--0-------|-----2-------------2h0---|--0h2---------------------|
-----------------|--0--------------------4-|--------------------------|
-----------------|-------------------------|--------------------------|
-----------------|-------------------------|--------------------------|


                                                                         
--------------------------|------------------------|--------------------|
--3h1-0h1-3h1-0-------0---|------------------------|---------------0h-3-|
----------------2h0-2---2-|--0-----------------0---|------0-----2-------|
--------------------------|----4h2h0-----------0---|----4----0----------|
--------------------------|----------3h2h0-----2---|--------------------|
--------------------------|----------------3h2-3---|--------------------|


                                                               
---3h-1-------------|-------------------|---------0----0------|
---------3h-0-------|-------------------|---2h-3-----2---2h0--|
---------------0----|-----------------1-|---------------------|
------------------2-|---0----------0----|---------------------|
--------------------|------4----4-------|---------------------|
--------------------|-------------------|---------------------|


                                                                     
---------------------|--------------------|---------1h0-----1h0-----|
-----0--3h-2---------|--0--2h-0-----------|-----0-------0-------0---|
--3----------------0-|-----------2h-0-----|--0----4-------4-------4-|
-----------------0---|-----------------4--|-------------------------|
---------------------|--------------------|-------------------------|
--------------3------|--------------------|-------------------------|


                                                                              
--1h0-----1h0-----1h0-----|------------------------|----0-----0----0-----0---|
------0-------0-------0---|-----2------------------|--0---0----------0-----0-|
--------4-------4-------4-|--2----3h0---0------0h3-|--------3----3-----3-----|
--------------------------|-----------2-----4------|-------------------------|
--------------------------|------------------------|-------------------------|
--------------------------|---------------2--------|-------------------------|


                                                                          
----0--------------------|-----------------------|-----------------------|
------0---0--------------|-----------------------|-----------------------|
--3-----3----3h0-3h0---0-|-----------------------|-----------------------|
-------------------------|---------4-----5-----4-|-----------------------|
---------------------4---|-------4-----4-----4---|-----------------------|
-------------------------|-----2-----2-----2-----|-----3h2-0h2h3h2h0h2h3-|


                                                                               
------------------0------------|--------------------|-------------------------|
----------------0---0----------|------------------0-|--0-0-0------------------|
--------------0-------0--------|--------------------|---------------0---------|
-------------------------------|--------------------|-------------4---0-----4-|
-------------------------------|--------------------|--------2----------4h2---|
--2h0h2h3h2h0-----------2h-3h2-|---0h2h3h2----------|-------------------------|


                                                                      
---------------------|-----------------------|-----------------------|
-------0-------------|-----------------0-----|-------------------0---|
-----0---------0-----|--0------------0----0--|--------0h2h3---0------|
---0---------------4-|----0-----4h-0---------|------4-------2------2-|
-----------------2---|------4h2--------------|----2------------------|
---------------------|-----------------------|-----------------------|


                                                                           
----------------------|----------0--------------|-------------------------|
--0h2-----------0-----|--------3---0------0-2h3-|--0---------------0------|
------0-------0-------|------0----------0-------|----2h0-2-------0--------|
--------4h2-----------|----0--------------------|--------------2----------|
------------7---------|--2----------------------|------------2------------|
----------------------|---------------0---------|----------0--------------|


                                                            
-----------------9-10-14-12-12-10-|--9---------------------|
---------8-10-12------------------|----12-10-8----0-----8--|
--7-9-11--------------------------|------------------0-----|
----------------------------------|------------------------|
----------------------------------|------------7-----------|
----------------------------------|------------------------|


                                                         
----------9h7-10h9-12h10-7h9-|--------------------------|
--7h8-7h8--------------------|--10h7-10h8-8---0---8-----|
-----------------------------|------------------0-------|
-----------------------------|--------------------------|
-----------------------------|--------------7-----------|
-----------------------------|--------------------------|


                                                                                
----------9h7-10h9-12h10-7h9-|-----------------------|-------------------------|
--7h8-7h8--------------------|--10h7-10h8-8----------|--------------7--7/-8----|
-----------------------------|---------------11------|-----------0-------------|
-----------------------------|---------------11------|--------8----------------|
-----------------------------|---------------10------|-----9-------------------|
-----------------------------|---------------9-------|--9----------------------|


                                                                        
--------0-------------||---------------------|--------------0----------|
------7---7-----------||--------3h-2--3------|--------3-------3---3----|
----6--------0--------||*----------------0---|------0---0------------0-|
--5-------------7h-4--||*----4-------------4-|----4-------4-----4------|
----------------------||---------------------|--2----------------------|
----------------------||---------------------|-------------------------|


                                                                               
--------------------0-----|-------------------0-----|-------------------------|
----2-----0-------3---2h3-|-------------3-------3---|--3------2-----0---------|
------0-----0-------------|---0-------0---0-------0-|-----0-----0-----0-------|
--4-----4-----0-----------|-----0---0-------0-------|-------0-----0-----0-----|
--------------------------|-------2-----------------|-----------------------2-|
----------------3---------|-------------------------|---------------------0---|


                                                                              
-------------------------|-------------0----------|--------------------------|
------3-2-3------------3-|-------3-------3---3----|----2-----0-------3h2h0-3h|
----0--------0-------0---|-----0---0-------0----0-|------0-----0-------------|
--0------------0---0-----|---2-------2------------|--2-----2-----0-----------|
-----------------2-------|------------------------|--------------------------|
-------------------------|------------------------|----------------2---------|


                                                                        
----2------------0-------|------------------||--3h2---3------------0---|
--2---2--------0---0-----|---------------0--||-----------0-------0---0-|
--------6h-0-0-------0---|-----------------*||-------------0---0-------|
-------------------------|-----------------*||---------------2---------|
-------------------------|--4---------------||-------------------------|
-----------------------3-|----2-------------||------0------------------|


                                                                                
----2-----3-----7-----5---|----3h-7h3-----2-----0---|--------3h2h0-2-----0-----|
------0-----0-----0-----0-|-----------0-----0-----0h|--1---1---------0h3---3h0-|
--0-----5-----5-----5-----|--5----------5-----5-----|--------------------------|
--------------------------|-------------------------|--------------------------|
--------------------------|-------------------------|----2---------------------|
--------------------------|-------------------------|--------------------------|


                                                                               
--2h0---0h2h0-3h2-5h3-3h2-|--5h2h-0---------0-------|---------------------0-2-|
------3-------------------|---------3-----2---3-2h1h|---0-----------0h1h3-----|
--------------------------|-------------0-----------|-----2h0---0h2-----------|
--------------------------|-----------2-------------|---------4---------------|
--------------------------|-------------------------|-------------------------|
--------------------------|-------------------------|-------------------------|


                                                     
--5-5-3-2-0--------------|--------------------------|
------------3-1-0-1--1-0-|--------0-----------------|
-------------------------|--2h0-2---2h0-------------|
-------------------------|--------------4h2h0-------|
-------------------------|--------------------3-2h0-|
-------------------------|--------------------------|


                                                         
---------------------------|------------------------0-2-|
---------------------------|-----------------0-2-3--0---|
------0--0-0-0-0-----------|-------------0-2--------0---|
------0--0-0-0-0-----------|-------0-2-4------------2---|
------1--1-1-1-1---------0-|---2-3------------------2---|
--3h2-3--3-3-3-3----2--3---|------------------------0---|


                                                       
---0----------0----------|----------------------------|
------------2---0----0---|-------3--2h3---------------|
----------0-------3------|-----0---------0------------|
--------2----------------|---0------------------------|
-------------------------|---------------------0--2-4-|
-----------------------3-|-----------------2-3--------|


                                                         
----------------------------|---------------------------|
-------------0-2------0-----|---3h2---------------------|
---------0-2--------3-----0-|--------2h0---0------------|
---0-2-4----------------0---|------------4---4h2h0----0-|
----------------------------|-----------------------4---|
-----------------0----------|---------------------------|


                                                           
-----------------0-2-3--6-8-|---10-9-9-7-7----------------|
-----------0-2-3------------|--------------8-8----------0-|
-------0-3------------------|------------------9-9-7--7---|
---2-4----------------------|-----------------------------|
----------------------------|-----------------------------|
----------------------------|-----------------------------|


                                                      
-------------------0-0-0-0--|------------------------|
---0---------------0-0-0-0--|------------------------|
-----0-0-----------0-0-0-0--|------------------------|
---------2-2-0-0---3-3-3-3--|-----3h0----3h0---3h0---|
-----------------4-4-4-4-4--|--4------4------4-----4-|
----------------------------|------------------------|


                                                                             
--------------------------|-----------------------|---------7h9--------7----|
--------------------------|------------------0----|-------8----------8------|
--------------------------|---------------------0-|-----7----------7--------|
--3h0---3h0---0-----------|---------------2-------|---7----------7----------|
------4-----2---4h0-4h2---|--2h0---0--------------|-------------------------|
------------------------3-|------2---3h0----------|-------------------------|


                                                   
--------------|-------------------|--------------||
--------------|------------7------|--------------||
--------------|----------6--------|--------------||
--------------|--------5----------|--------------||
--------------|------4------------|--------------||
--------------|-------------------|--------------||





Comments


Popular Vicente Amigo tabs & chords
Cordoba Tabs
Demi Corazon Al Aire Tabs
El Mandaito Tabs
Gitano De Lucia Tabs
Mensaje Tabs
Morao Tabs
Morente Tabs
My Heart To The Wind Mi Corazon Al Aire Tabs
Tio Arango Tabs


Song lyrics



↑ Back to top | Tablatures and chords are parodies/interpretations of the original songs. You may use it for private study, scholarship, research or language learning purposes only
© 2014 AZChords.com Contact us | Privacy policy | DMCA | Add/correct tabs | Request tabs | Top 50 tabs