» » »

Vibrators, Whips And Furs Bass tabs (ver.1)

Artists:  A B C D E F G H I J K L M N O P Q R S T U V W X Y Z # 

Whips And Furs Bass tabs (ver.1)

Vibrators Tabs
Rating:
0/5 (0 votes)
Whips And Furs lessons Tabs too difficult? Try these video lessons and learn fast
                Tuning: Standard E,A,D,G


Riff A
G|-------------------|-----------------|----------------|------------|
D|--------8----------|---------6-5-----|----------------|------------| 
A|-6-6-10---10-8-6-8-|-----6-8-----8-6-|----------------|------------| 
E|-------------------|-6-6-------------|-8--8--8-6--4---|-4-4--6--6--|




Riff B
G|-------------------|-----------------|-------------------|--------------|
D|--------8----------|---------6-5-----|-------------------|--------------| 
A|-6-6-10---10-8-6-8-|-----6-8-----8-6-|-4-4-4-------------|-4-4-4--------| 
E|-------------------|-6-6-------------|-------4---4-4-----|-------4--4-4-| 

G|---------------|  
D|---------------| 
A|-4-4-4---------|
E|-------4--4-4--|



Riff C

G|-------------8-10-8-|-11-10-8-------------|---------------|------------|
D|--------8-10--------|---------10-8--------|---------------|------------|
A|-6-6-10-------------|--------------10-8-6-|---------------|------------|
E|--------------------|---------------------|-8--8--8-6--4--|-4-4--6--6--|


Play Riff A 3 times
Play Riff B 1 time
Play Riff C 1 time
Do that until the song ends


Last Bar

G|----------|  
D|----------| 
A|-6~-------|
E|----------|
            
Submit corrections

comments powered by Disqus
↑ Back to top | Vibrators Bass for Whips And Furs. Lyrics for acoustic guitar and electric guitar. Tablatures and chords are parodies/interpretations of the original songs. You may use it for private study, scholarship, research or language learning purposes only