» » »

Vibrators, Wake Up Bass tabs (ver.1)

Artists:  A B C D E F G H I J K L M N O P Q R S T U V W X Y Z # 

Wake Up Bass tabs (ver.1)

Vibrators Tabs
 Rating:
4/5 (4 votes)
Wake Up lessons Tabs too difficult? Try these video lessons and learn fast
1
                Vibrators
V2

Intro
|----------------------------------------------|
|----------------------------------------------|
|-17/444444444444444-4444444-4-4-4-4-4-4-4-4-4-|
|----------------------------------------------|

Verse
|----------------------|
|-----------7----------|
|----------------------|
|-2-2-202-5---57-777-5-|

Pre Chorus
|--------------------------------|
|-----------------57-7-----------|
|--------------7-7----7-99999999-|
|-5-5-5-35-777-------------------|

Chorus
|------------------------------------|
|------------------------------------|
|----------7\999 x4------------------|
|-5\777 x4---------5\777 x4-7\999 x4-|

Outro
|-----------------------||----|
|------------7----------||----|
|-----------------------||----|
|-22222222-5---57-777-5-||-22-|

The End
            
Submit corrections

comments powered by Disqus
↑ Back to top | Vibrators Bass for Wake Up. Lyrics for acoustic guitar and electric guitar. 1 Tablatures and chords are parodies/interpretations of the original songs. You may use it for private study, scholarship, research or language learning purposes only