» » »

The Girls Screwed Up Tabs (ver.1)

Artists:  A B C D E F G H I J K L M N O P Q R S T U V W X Y Z # 

The Girls Screwed Up Tabs (ver.1)

Vibrators
Rating:
0/5 (0 votes)

Hard to play? Try these video lessons and learn fast.
                .------------------------------------------------.
| Artist        : The Vibrators                  |
| Album         : French Lessons With Correction!| 
| Track         : The Girl's Screwed Up          |
|------------------------------------------------|
| Date          : Sun 25th May 2012              |
`------------------------------------------------'

 
 
[intro]

    A         A         A         A
e|-----------------------------------------|
B|-----------------------------------------|
G|-----------------------------------------|
D|--7---------7---------7---------7--------|
A|--7---------7---------7---------7--------|
E|--5---------5---------5---------5--------|



[chorus]

    A  D  E   A  D  E   A  D  E   EE D  A
e|-----------------------------------------|
B|-----------------------------------------|
G|-----7--9------7--9------7--9---99-7-----|
D|--7--7--9---7--7--9---7--7--9---99-7--7--|
A|--7--5--7---7--5--7---7--5--7---77-5--7--|
E|--5---------5---------5---------------5--|


[verse one]


    E         E         D         A
e|-----------------------------------------|
B|-----------------------------------------|
G|--9---------9---------7------------------|
D|--9---------9---------7---------7--------|
A|--7---------7---------5---------7--------|
E|--------------------------------5--------|


    E         E         D         E
e|-----------------------------------------|
B|-----------------------------------------|
G|--9---------9---------7---------9--------|
D|--9---------9---------7---------9--------|
A|--7---------7---------5---------7--------|
E|-----------------------------------------|


[verse two]


    E         E         D         A
e|-----------------------------------------|
B|-----------------------------------------|
G|--9---------9---------7------------------|
D|--9---------9---------7---------7--------|
A|--7---------7---------5---------7--------|
E|--------------------------------5--------|


    E         E         D         E
e|-----------------------------------------|
B|-----------------------------------------|
G|--9---------9---------7---------9--------|
D|--9---------9---------7---------9--------|
A|--7---------7---------5---------7--------|
E|-----------------------------------------|

    E         E         E         E
e|-----------------------------------------|
B|-----------------------------------------|
G|--9---------9---------9---------9--------|
D|--9---------9---------9---------9--------|
A|--7---------7---------7---------7--------|
E|-----------------------------------------|


[bridge]

I'm pretty sure this is right, try bending the neck slightly
and get some feedback from your amp after hitting the B.

     B
e||----------------------------------------||-----------------------|
B||----------------------------------------||-----------------------|
G||----------------------------------------||-----------------------|
D||--9-------------------------------------||-----------------------|
A||--9-------------------------------------||--[   pickslide   ]----|
E||--7-------------------------------------||--[   pickslide   ]----|


Order
 - intro 
 - chorus    [x2]
 - verse one [x1]
 - chorus    [x2]
 - verse two [x1]
 - chorus    [x2]
 - verse one [x1]
 - chorus    [x2]
 - bridge    [x1]
 - chorus    [x2]
 - verse two [x1]
 - chorus    [x6]
 
 
Enjoy :D
            
Hard to play? Try these video lessons and learn fast. | Correct




comments powered by Disqus
↑ Back to top | Tablatures and chords are parodies/interpretations of the original songs. You may use it for private study, scholarship, research or language learning purposes only