» » »

Vibrators, Sulphate Bass tabs (ver.1)

Artists:  A B C D E F G H I J K L M N O P Q R S T U V W X Y Z # 

Sulphate Bass tabs (ver.1)

Vibrators Tabs
 Rating:
4/5 (4 votes)
Sulphate lessons Tabs too difficult? Try these video lessons and learn fast
                Vibrators
V2

Standard Tunning: EADG


|---------------------------------------------------------|
|-------------------------------------------------5-7-5---|
|-----3535-3------3535-3-----------------------5-7------7-|
|-3-5-------5--3-5------5--3-5-753-33333333-5-7-----------|

|--------------------------------------------------------|
|--------------------------------------------------------|
|-----3535-------35535-53--------------------------------|
|-3-5---------3-5--------5--3-5-753-33333333-55555555----|

|-----------------------------7\14r-|
|-----------------------------------|
|---66-9-9----22-5-5---66-9-9-------|
|-77--------33-------77-------------|

|------------------------------------------------------|
|------------------------------------------------------|
|-----3535-3------35535-53-----------------------------|
|-3-5-------5--3-5--------5--3-5-753-33333333-55555555-|

|----------------------------------------------|
|----------------------------------------------|
|-----535-----5335-----------------------------|
|-3-5-----3-5--------3-5-753-33333333-55555555-|

|----------------------------|
|----------------------------|
|-------------------12121212-|
|-7777/-3333/-7777/----------|

|----------------------------------------------|
|----------------------------------------------|
|-----535-----5335-----------------------------|
|-3-5-----3-5--------3-5-753-33333333-55555555-|

|-----------------------------7\14r-|
|-----------------------------------|
|---66-9-9----22-5-5---66-9-9-------|
|-77--------33-------77-------------|

|-------------------------------------------|
|-------------------------------------------|
|-----3535-----3553553----------------------|
|-3-5------3-5--------5--3-5-753-33333333-5-|


Break


|-------------------------------------------|
|-------------------------------------------|
|-----3535-----3553553----------------------|
|-3-5------3-5--------5--3-5-753-33333333-5-|

The End
            
Submit corrections

comments powered by Disqus
↑ Back to top | Vibrators Bass for Sulphate. Lyrics for acoustic guitar and electric guitar. Tablatures and chords are parodies/interpretations of the original songs. You may use it for private study, scholarship, research or language learning purposes only