» » »

Vibrators, Flying Duck Theory Bass tabs (ver.1)

Artists:  A B C D E F G H I J K L M N O P Q R S T U V W X Y Z # 

Flying Duck Theory Bass tabs (ver.1)

Vibrators Tabs
Rating:
0/5 (0 votes)
Flying Duck Theory lessons Tabs too difficult? Try these video lessons and learn fast
                Vibrators
V2

Standard tuning: EADG

I'm pretty sure this is 99.9% correct


Intro:
|---------------------------------7\9-7-------|
|--------------------------------------9-7----|
|-19/7-5-7--------333333-555555-7----------9/-|
|----------23-233-----------------------------|

Verse x2
|---------------------------|
|---------------------------|
|--7------------3-----------|
|-7-7-77777975-3-3-33333333-|

Break
|---------------------------7\9-7------|
|--------------------------------9-7---|
|-------------------------7---------9/-|
|-3-555-3-555-3-555-3-555--------------|

Verse x2
|---------------------------|
|---------------------------|
|--7------------3-----------|
|-7-7-77777975-3-3-33333333-|

Break
|---------------------------7\9-7------|
|--------------------------------9-7---|
|-------------------------7---------9/-|
|-3-555-3-555-3-555-3-555--------------|

Chorus
|----------------------------------------7\9-7-------|
|---------------------------------------------9-7----|
|----------------------5-77-79-7-5-3-5-7----------9/-|
|-55555555-77777777-5-7------------------------------|

Verse x2
|---------------------------|
|---------------------------|
|--7------------3-----------|
|-7-7-77777975-3-3-33333333-|

Break
|---------------------------7\9-7------|
|--------------------------------9-7---|
|-------------------------7---------9/-|
|-3-555-3-555-3-555-3-555--------------|

Verse
|-----------------------------------||---------------------------|
|-----------------------------------||---------------------------|
|--7-------6-7-9-7-6----3-----------||--7------------3-----------|
|-7-7-777-9----------9-3-3-33333333-||-7-7-77777975-3-3-33333333-|

Break
|--------------------5------------7\9-7--------|
|-5-777----5-777-5-7---7-5--------------9-7----|
|--------------------------7-5\7------------9/-|
|----------------------------------------------|

Chorus
|----------------------------------------7\9-7-------|
|---------------------------------------------9-7----|
|----------------------5-77-79-7-5-3-5-7----------9/-|
|-55555555-77777777-5-7------------------------------|

Intro
|---------------------------------7\9-7-------|
|--------------------------------------9-7----|
|-19/7-5-7--------333333-555555-7----------9/-|
|----------23-233-----------------------------|

x4
|----------------------------||---------------------------7\9-7------|
|----------------------------||--------------------------------9-7---|
|--7-------------3-----------||-------------------------7---------9/-|
|-7-7-7777777-5-3-3-3332323-5||-3-555-3-555-3-555-3-555--------------|

Verse x2
|---------------------------|
|---------------------------|
|--7------------3-----------|
|-7-7-77777975-3-3-33333333-|

Break
|---------------------------7\9-7------|
|--------------------------------9-7---|
|-------------------------7---------9/-|
|-3-555-3-555-3-555-3-555--------------|

End
|--------------------------------------|
|--------------------------------------|
|----------------------5-77-79-7-5-3-5-|
|-55555555-77777777-5-7----------------|

|--------------------------------------|
|--------------------------------------|
|----------------------5-77-79-7-5-3-5-|
|-55555555-77777777-5-7----------------|

|----------------------------------------7\9-7------|
|---------------------------------------------9-7---|
|----------------------5-77-79-7-5-3-5-7----------7-|
|-55555555-77777777-5-7-----------------------------|

The End
            

comments powered by Disqus
↑ Back to top | Vibrators Bass for Flying Duck Theory. Lyrics for acoustic guitar and electric guitar. Tablatures and chords are parodies/interpretations of the original songs. You may use it for private study, scholarship, research or language learning purposes only