» » »

Vex Red, For The Cure Tabs (ver.1)

Artists:  A B C D E F G H I J K L M N O P Q R S T U V W X Y Z # 

For The Cure Tabs (ver.1)

Vex Red Tabs
Rating:
5/5 (2 votes)
For The Cure lessons Tabs too difficult? Try these video lessons and learn fast
                this song is tuned in drop-c tuning 

intro   clean  gtr 1
|--------------------------------------------------
|--------------------------------------------------
|--------------------------------------------------
|------------------------------------------5----5--
|7p-5-7-5---5----5--0--2----2-0----2---2--3--3-3--0
|-----7-5--5--5-5--5-0--0-0----0-2--2-2--2---------

intro   distortion gtr 2

|-------------------------------------------
|-------------------------------------------
|-------------------------------------------
|----------5~--------7~----------2~-------3~
|----------5~--------7~----------2~-------3~
|----------5~--------7~----------2~-------3~


verse gtr 1 (X3)

|-----------------------------------------
|-----------------------------------------
|-----------------------------------------
|---------------------------------5----5--
|--5----5--0--2----2-0----2---2--3--3-3--0
|-5--5-5--5-0--0-0----0-2--2-2--2---------

VERSE GTR 2   x3

|------------------------------------------
|------------------------------------------
|------------------------------------------
|-5-5-5-5-5-7-7-7-7-7-7-2-2-2-2-2-3-3-3-3-3
|-5-5-5-5-5-7-7-7-7-7-7-2-2-2-2-2-3-3-3-3-3
|-5-5-5-5-5-7-7-7-7-7-7-2-2-2-2-2-3-3-3-3-3
  d u d u d d u d u d u d u d u d d u d u d

chorus guitar 1 x3

|--------------------------------------------------------
|--------------------------------------------------------
|--------------------------------------------------------
|-5-5-5-5-5-5-0-9-9-9-9-9-9-0-5-5-5-5-5-5-0-7-7-7-7-7-7-0
|-5-5-5-5-5-5-0-7-7-7-7-7-7-0-3-3-3-3-3-3-0-5-5-5-5-5-5-0
|-5-5-5-5-5-5-0-------------0-------------0-------------0


chorus gtr 2 x3

|---------------------------------------------------------
|----------------------------------------------------------
|----------------------------------------------------------
|---------------9-9-9-9-9-9-9--5-5-5-5-5-5-5-7-7-7-7-7-7-7-
|-5-5-5-5-5-5--7-7-7-7-7-7-7--3-3-3-3-3-3-3-5-5-5-5-5-5-5--
|5-5-5-5-5-5-5---------------------------------------------



verse gtr 1 (X3)

|-----------------------------------------
|-----------------------------------------
|-----------------------------------------
|---------------------------------5----5--
|--5----5--0--2----2-0----2---2--3--3-3--0
|-5--5-5--5-0--0-0----0-2--2-2--2---------



VERSE GTR 2   x3

|------------------------------------------
|------------------------------------------
|------------------------------------------
|-5-5-5-5-5-7-7-7-7-7-7-2-2-2-2-2-3-3-3-3-3
|-5-5-5-5-5-7-7-7-7-7-7-2-2-2-2-2-3-3-3-3-3
|-5-5-5-5-5-7-7-7-7-7-7-2-2-2-2-2-3-3-3-3-3
  d u d u d d u d u d u d u d u d d u d u d




chorus guitar 1    x3

|--------------------------------------------------------
|--------------------------------------------------------
|--------------------------------------------------------
|-5-5-5-5-5-5-0-9-9-9-9-9-9-0-5-5-5-5-5-5-0-7-7-7-7-7-7-0
|-5-5-5-5-5-5-0-7-7-7-7-7-7-0-3-3-3-3-3-3-0-5-5-5-5-5-5-0
|-5-5-5-5-5-5-0-------------0-------------0-------------0


chorus gtr 2   x3

|---------------------------------------------------------
|----------------------------------------------------------
|----------------------------------------------------------
|---------------9-9-9-9-9-9-9--5-5-5-5-5-5-5-7-7-7-7-7-7-7-
|-5-5-5-5-5-5--7-7-7-7-7-7-7--3-3-3-3-3-3-3-5-5-5-5-5-5-5--
|5-5-5-5-5-5-5---------------------------------------------

solo  gtr 1   part 1

|-----------10-9-7-9---------------5-3---------------------------------------
|-7-9-10-9-7---------7\5-5-5-5\3/5----5-3---3-3/9-10^-10^-10^-12p11-9-7-9-7-9
|-----------------------------------------5~-----------------------------7---
|----------------------------------------------------------------------------
|----------------------------------------------------------------------------
|----------------------------------------------------------------------------

part 2
|--------------------------------------------------------------
|-9^-9^-9^-10-12-15p12-15p14^-14^-14^--16-13--15-12-12-12-12~~~
|--------------------------------------------------------------
|--------------------------------------------------------------
|--------------------------------------------------------------
|--------------------------------------------------------------

gtr2 part during solo x2
|--------------------------------------------------------
|--------------------------------------------------------
|--------------------------------------------------------
|-5-5-5-5-5-5-0-9-9-9-9-9-9-0-5-5-5-5-5-5-0-7-7-7-7-7-7-0
|-5-5-5-5-5-5-0-7-7-7-7-7-7-0-3-3-3-3-3-3-0-5-5-5-5-5-5-0
|-5-5-5-5-5-5-0-------------0-------------0-------------0

end in 
|---------------------------------------------
|---------------------------------------------
|---------------------------------------------
|---------------------------------5----5------
|--5----5--0--2----2-0----2---2--3--3-3--0~~~~
|-5--5-5--5-0--0-0----0-2--2-2--2-------------

thats it its that simple.
            

comments powered by Disqus
↑ Back to top | Vex Red Tabs for For The Cure. Lyrics for acoustic guitar and electric guitar. Tablatures and chords are parodies/interpretations of the original songs. You may use it for private study, scholarship, research or language learning purposes only