>
 >
Reset

Reset Guitar Tabs

Veto - Reset chords, tabs, tablatures, lyrics

Guitar lessons | Add/correct | Request | Top 50 tabs Artists:  A B C D E F G H I J K L M N O P Q R S T U V W X Y Z 0-9

Reset Guitar Tabs – Veto

CD, Sheet music, Poster

Do you like Reset? Share with your friends now
Tabs
i have made a new tab for this song. there was a lot of uncorrect writing  in the
old tab. this new tab is played in the right key and sounds better.

e----------------------------------------------------------------------|
b----------------------------------------------------------------------|
g----------------------------------------------------------------------|
d----------------------------------------------------------------------|
a-5-5-5-5-5-5-5-6-6-6-5-5-5-5-5-5-5-6-6-6--8-8-8-8-8-8-8-8-8-8-8-8-8-8-|
e-3-3-3-3-3-3-3-3-3-3-3-3-3-3-3-3-3-3-3-3--5-5-5-6-6-6-6-5-5-5-6-6-6-6-|

e---------------------------|
b---------------------------|
g---------------------------|
d---------------------------|  this is the main riff in the song.
a-5-5-5-5-5-5-5-6-6-6-5-5-5-|
e-3-3-3-3-3-3-3-3-3-3-3-3-3-|


in the end of the song i have found out how to play the guitar/keyboard.

if you want it to sound like the keyboard you should play: it's just a deeper sound.
    Gm         Fism       Am       Gm         Fism
e--------------------------------------------------------|
b--------------------------------------------------------|
g--5-5-5-5--4-4-4-4-4--7-7-7-7--5-5-5-5--4-4-4-4-4-4-4-4-|
d--5-5-5-5--4-4-4-4-4--7-7-7-7--5-5-5-5--4-4-4-4-4-4-4-4-|
a--3-3-3-3--2-2-2-2-2--5-5-5-5--3-3-3-3--2-2-2-2-2-2-2-2-|
e--------------------------------------------------------|

Guitar: play this much faster, make it match the keyboard tempo, so that you change 
at the exact same time, as the keyboard.
e--------------------------------------------------------------------------|
b---15-15-15-15-15-15-15-15--14-14-14-14-14-14-14-14--17-17-17-17-17-17-17-|
g--------------------------------------------------------------------------|
d--------------------------------------------------------------------------|
a--------------------------------------------------------------------------|
e--------------------------------------------------------------------------|

keep playing the guitar riff ^
|--------------------------------------------------------------------------|
|-17--15-15-15-15-15-15-15-15--14-14-14-14-14-14-14-14-14-14-14-14-14-14-14|
|--------------------------------------------------------------------------|
|--------------------------------------------------------------------------|
|--------------------------------------------------------------------------|
|--------------------------------------------------------------------------|





Comments


Popular Veto tabs & chords
Cannibal Chords
Breaking And Entering Intro Tabs
Can You See Anything Tabs
Duck Hush And Be Still Tabs
I Brought The Bbq Tabs
Spit It Out Tabs
You Are Knife Tabs
You Are Knife Intro Tabs
You Cant Afford It Tabs
You Say Yes I Say Yes Tabs


Song lyrics



↑ Back to top | Tablatures and chords are parodies/interpretations of the original songs. You may use it for private study, scholarship, research or language learning purposes only
© 2014 AZChords.com Contact us | Privacy policy | DMCA | Add/correct tabs | Request tabs | Top 50 tabs