» » »

Worse For Wear Tabs (ver.1)

Artists:  A B C D E F G H I J K L M N O P Q R S T U V W X Y Z # 

Worse For Wear Tabs (ver.1)

Vetiver
Rating:
0/5 (0 votes)

Tabs too difficult? Try these video lessons and learn fast.
                
Drop D Tuning - DADGBE

Chords used for most of the song (strum them)
|---------------|
|-3-3-3--3-3----|
|-2-2-0--2-0----|
|-4-4-2--4-2----|
|-0-0-0--0-0----|
|-0-0-0--0-0----|

Chorus
|----2----------|
|-3--2-----2----|
|-4--2--4--0----|
|-4--4--5--2----|
|-2--4--5--0----|
|----4--5-------|

Bridge
|-2-------------------------------------------------------0--|
|-2-------------------------------------------------------2--|
|-2-2----4-2---2-4----------------2-4----4-2---2-4--------0--|
|-0----------4------4--2-2--0-2---0---4------4------4--2--2--|
|-0---0-------------5--2-2--0-2---0-----------------5--2--0--|
|-0-----------------7--2-2--0-2---0-----------------7--2-----|


|-0--0--0--0--0-0---0-0---0-0---0----0---0---0---0---0---0------|
|-0--3--0--3------3-----3-----3---0--0-0---0---0---0---0---3----|
|-0--2--0--2-------------------------0--------------------------|
|-2--0--2--0-------------------------2--------------------------|
|-2--0--2--0-------------------------2--------------------------|
|-2--0--2--0-------------------------2--------------------------|


|-0---0-----0-----0-----0-----0----0---0---0---0---0---0----|
|-3-3---3-----3-----3-----3-----0--0-0---0---0---0---0---3--|
|-2-------2-----2-----2-----2------0------------------------|
|-0--------------------------------2------------------------|
|-0--------------------------------2------------------------|
|-0--------------------------------2------------------------|

Back to this
|---------------|
|-3-3-3--3-3----|
|-2-2-0--2-0----|
|-4-4-2--4-2----|
|-0-0-0--0-0----|
|-0-0-0--0-0----|
            
Tabs too difficult? Try these video lessons and learn fast.




comments powered by Disqus
↑ Back to top | Tablatures and chords are parodies/interpretations of the original songs. You may use it for private study, scholarship, research or language learning purposes only