>
 >
Rolling Sea

Rolling Sea Chords

Vetiver - Rolling Sea chords, tabs, tablatures, lyrics

Guitar lessons | Add/correct | Request | Top 50 tabs Artists:  A B C D E F G H I J K L M N O P Q R S T U V W X Y Z 0-9

Rolling Sea Chords – Vetiver

CD, Sheet music, Poster

Do you like Rolling Sea? Share with your friends now
ChordsUkulele
By Vetiver
(listen to the song for timing)
I borrowed the intro from unregistered user. 
Enjoy

e |--------------------|-----------------|
B |-----3---3--3-------|-----------------|
G |-2h4---4------4-2-2-|-2h4-2-----------|
D |--------------------|-------4-2-0-----|
A |--------------------|-----------------|
E |--------------------|-----------------|

e |--------------------|-----------------|
B |-------3--3---------|-----------------|
G |-2h4p2------4p2-----|-----2---2-------|
D |--------------------|-2h4---4---2h4-2-|
A |--------------------|-----------------|
E |--------------------|-----------------|


e |--------------------|-----------------|
B |-----3---3--3-------|-----------------|
G |-2h4---4------4p2-2-|-2h4-2-----------|
D |--------------------|-------4-2-0-----|
A |--------------------|-----------------|
E |--------------------|-----------------|


e |---------------------------------------|
B |---------------------------------------|
G |--------------------------2------2-----|
D |-2h4-2p0-----0--0-2h4p2h4----2h4---4-2-|
A |---------2p0---------------------------|
E |---------------------------------------|

D
Wouldn't you like to be
           A       D
out on the rolling sea
D                                 A
with only the sky above you for a roof

D
What if you're friends were there
                A         D
laughed at your jokes and shared
D                                         A
Sweet soft air with you, wouldn't that be good?

   G F# Em     D
You know... it would

D
Wouldn't you like to find
         A         D
yourself there sometime
                                 A   
Ducking when the bow swings your way

D
whenever we make plans
                     A    D
you tell me you're a busy man
                                    A
That you'd go but you really should stay

    G F# Em         D
Someday soon you'll say..

G   F#  Em                  D
Nothin' escapes the rolling sea
        G    F#  Em     D
Not the past nor you or me 

D
You keep the world at bay
              A     D
Should it all wash away
                                    A
You wouldn't feel no pain of losing kind

D
Gather the boat and wind
                  A       D
and a few of your closest friends
                                        A
Gonna ride and swim while the weather's nice

        G    F#     Em   D
Oh it's been such a long time.....
  G      F# Em           D
Oh it's been such a long time....
 G      F#     Em        D
Oh it's been such a long time....





Comments


Popular Vetiver tabs & chords
Been So Long Chords
Hook Ladder Chords
I Must Be In A Good Place Now Chords
To Baby Chords
Belles Tabs
No One Would Tabs
Rolling Sea Intro Tabs
Blue Driver Ukulele
Everyday Ukulele
Lon Chaney Ukulele


Song lyrics



↑ Back to top | Tablatures and chords are parodies/interpretations of the original songs. You may use it for private study, scholarship, research or language learning purposes only
© 2014 AZChords.com Contact us | Privacy policy | DMCA | Add/correct tabs | Request tabs | Top 50 tabs