» » »

On The Other Side Chords (ver.1)

Artists:  A B C D E F G H I J K L M N O P Q R S T U V W X Y Z # 

On The Other Side Chords (ver.1)

Vetiver
Rating:
5/5 (1 vote)

Tabs too difficult? Try these video lessons and learn fast.
                Vetiver - On The Other Side

Main guitar riff during the song:
e|-------------------------------------|
B|-3----3----3----3------3------3---3--|
G|---5----4----2----4-h5----2-----5----|
D|-------------------------------------|
A|-------------------------------------|
E|-------------------------------------|
C    D    8x

C     D           C    D
Look around, what do I see
C       D             C            D
Strange people with some place to be
C         D      C        D
Getting lost out in the crowd
C      D        C         D
Saying nothing, talking loud
C         D       C         D
Sounding nervous, act uptight
C         D        C         D
Boast the bully oh first to fight
C        D      C            D
See, to me that don't seem right
           C       D
I'm on the other side

C     D  3x

C          D       C        D
You know those who need to win
C    D                C       D
Keep pushing 'till the very end
C        D    C         D
I'll go easy, I'll step light
           C        D
I'm on the other side

C    D  3x

   C      D          C    D
No pressure, I don't worry
          C     D        C    D
I do what comes naturally
   C      D         C     D
No need to, rush or hurry
          C        D    C   D
That just ain't my speed
       C  D      C      D
I can wait, rock steady
   C      D          C    
Be ready when you are
D      B         E   E Eb D
Bon voyage, au revoir

Guitar solo

   C     D        C       D     C      D        C         D
e|----------------------------------------------------------------|
B|--------------------6^----------6^---8-6------------------------|
G|-------5^--7--5-7--5----7-5-7------------7--5-7--5--------------|
D|--5-7----------------------------------------------7--5---------|
A|--------------------------------------------------------8^--5---|
E|--------------------------------------------------------------8-|

   C       D       C        D         C   D       C         D
e|----------------------------------------------------------------|
B|----------------------------------------------------------------|
G|----------------5--5---5----------------------------------------|
D|---------5---5h7----5h7-3h5--3-5--3-5---5^-3--------------------|
A|-5---8^----8----------------------------------3h5--3h5--3h5--3h5|
E|----------------------------------------------------------------|

C     D           C           D
Far away from the maddening crowd
C        D       C      D
Grateful not to be so proud
C         D       C     D
and with patience as my guide
           C         D  C   D
I'm on the other side
           C         D  C   D
I'm on the other side

C   D for about 12 times until the fade out, played with variations on the main 
guitar riff of the song
            
Tabs too difficult? Try these video lessons and learn fast.




comments powered by Disqus
↑ Back to top | Tablatures and chords are parodies/interpretations of the original songs. You may use it for private study, scholarship, research or language learning purposes only