» » »

Vetiver, Houses Chords (ver.1)

Artists:  A B C D E F G H I J K L M N O P Q R S T U V W X Y Z # 

Houses Chords (ver.1)

Vetiver Tabs
 Rating:
4/5 (5 votes)
Houses lessons Tabs too difficult? Try these video lessons and learn fast
                Vetiver - Houses
Note: the rhythm guitar uses a drop D tuning, as heard in the first strummed chord 
of the song. Enjoy!

D      G 2x

D                     G
I could never make it in your house
D                       G
You could never make it in mine
D                    G
Even if we were both wealthy and
D                    G
High born in another time

A                             D
Just like a circle 'round the sun
A           D
Just like a circle 'round the sun
         G                    A
Where my song has just begun
                              D
Just like a circle 'round the sun

Lead guitar riff
D            G
e|-----------------------------|
B|-17/-17-15-------17/17\-15---|
G|-----------16-------------14-|
D|-----------------------------|
A|-----------------------------|
E|-----------------------------|

D                     G
I could never make it in your jail
D                       G
You could never make it in mine
D                    G
Even if we were both wealthy and
D                    G
High born in another time

A                             D
Just like a circle 'round the sun
A           D
I've got my ticket in my hand
        G                          A
And I'm bound for the promise land
                              D
Just like a circle 'round the sun

Lead guitar riff
D            G
e|---------------------------|
B|-17/-17-15-------17/17\-15-|
G|-----------16--------------|
D|---------------------------|
A|---------------------------|
E|---------------------------|

D                      G
I could never lie down in your ditch
D                    G
You would never want to in mine
D                    G
Even if we were both wealthy and
D                    G
High born in another time

A                             D
Just like a circle 'round the sun
A           D
Just like a circle 'round the sun
         G                    A
Where my song has just begun
                              D
Just like a circle 'round the sun

D            G
e|-------------------------------|
B|-17/-17-15---------17/17\-15---|
G|-----------1416-------------14-|
D|-------------------------------|
A|-------------------------------|
E|-------------------------------|

D                     G
I could never make it in your house
D                       G
You could never make it in mine
D                    G
Even if we were both wealthy and
D                    G
High born in another time

A                             D
Just like a circle 'round the sun
A           D
Just like a circle 'round the sun
         G                    A
Where my song has just begun
                              D
Just like a circle 'round the sun

D            G                D
e|-15/-15-14---------14'14-12----|
B|-----------12------------------|
G|----------------------------14-|
D|-------------------------------|
A|-------------------------------|
E|-------------------------------|

                       G                    D
e|---------------------------------------------|
B|-15-17-15-17-15-17-1517-15------17/17\-15----|
G|---------------------------16-------------14-|
D|---------------------------------------------|
A|---------------------------------------------|
E|---------------------------------------------|

/: full bend
': 1/2 bend
            
Submit corrections

comments powered by Disqus
↑ Back to top | Vetiver Chords for Houses. Lyrics for acoustic guitar and electric guitar. Tablatures and chords are parodies/interpretations of the original songs. You may use it for private study, scholarship, research or language learning purposes only