» » »

Faint Praise Tabs (ver.1)

Artists:  A B C D E F G H I J K L M N O P Q R S T U V W X Y Z # 

Faint Praise Tabs (ver.1)

Vetiver
Rating:
5/5 (1 vote)

Tabs too difficult? Try these video lessons and learn fast.
                
Capo on 1st fret

Intro (repeated throughout song)
|-0-----------0-----------0-----------0-------------|
|-0----3------0----3------0----3------0-------------|
|-0--2---2-0--0--2---2-0--0--2---2-0--0--------0----|
|-2-----------2-----------2-----------2--3p2-3------|
|-3-----------3-----------3-----------3-------------|
|---------------------------------------------------|

Verse
|-0------------3--0--1--3--0--------3--0--1--3----|
|-0------------5--0--1--3--0--------5--0--1--3----|
|-0--2--4------4--0--2--4--0--2--4--4--0--2--4----|
|-2--3--5--x3--5--2--3--5--2--3--5--5--2--3--5----|
|-3--3--5------3--3--3--5--3--3--5--3--3--3--5----|
|----1--3------------1--3-----1--3--------1--3----|

 
|-1--3--5--7--|
|-3--5--6--8--|
|-2--4--7--9--|
|-3--5--7--9--|
|-------------|
|-------------|

|-0-----------0-----------0-----------0-------------|
|-0----3------0----3------0----3------0-------------|
|-0--2---2-0--0--2---2-0--0--2---2-0--0--------0----|
|-2-----------2-----------2-----------2--3p2-3------|
|-3-----------3-----------3-----------3-------------|
|---------------------------------------------------|

Bridge
|-0--3--1--0--3-------------------1---|
|-1--3--3--1--3-------------------1---|
|-3--3--2--0--3-------------------2---|
|-2--5--3--2--5------3--3---------3---|
|-3--5-----3--5--3h5-5--3h5--5-3--3---|
|----3--------3-------------------1---|

|-0-----------0-----------0-----------0-------------|
|-0----3------0----3------0----3------0-------------|
|-0--2---2-0--0--2---2-0--0--2---2-0--0--------0----|
|-2-----------2-----------2-----------2--3p2-3------|
|-3-----------3-----------3-----------3-------------|
|---------------------------------------------------|

Guitar solo
|-3---3-3-3-3---------------------------------------3------|
|-3h5-5-5-5-5--3-5-6-5-3-----3----------------------3h5----|
|------------------------5-4---0----2-4-5---5-5-4-2--------|
|---------------------------------5-------5----------------|
|----------------------------------------------------------|
|----------------------------------------------------------|


|-----------5-3--3---3-3---------------------------------3-5-3----|
|---3-5-6-6------3h5-5-5-3---------------------------5-6----------|
|-5------------------------5-4-2-0---------------0----------------|
|----------------------------------3-2-0-----2-3------------------|
|----------------------------------------3-2----------------------|
|-----------------------------------------------------------------|


|-12-12-10----7------5-----3---1-----1-3-----3-5-----5-7-----7----|
|-13-13----13-8-10-8-6-8-6-5-------3-------5-------6-------8------|
|-12-12-------9------7-9-7-5-----2-------4-------7-------9--------|
|-----------------------------------------------------------------|
|-----------------------------------------------------------------|
|-----------------------------------------------------------------|

Back to this
|-0-----------0-----------0-----------0-------------|
|-0----3------0----3------0----3------0-------------|
|-0--2---2-0--0--2---2-0--0--2---2-0--0--------0----|
|-2-----------2-----------2-----------2--3p2-3------|
|-3-----------3-----------3-----------3-------------|
|---------------------------------------------------|
            
Tabs too difficult? Try these video lessons and learn fast.




comments powered by Disqus
↑ Back to top | Tablatures and chords are parodies/interpretations of the original songs. You may use it for private study, scholarship, research or language learning purposes only