» » »

At Forest Edge Tabs (ver.1)

Artists:  A B C D E F G H I J K L M N O P Q R S T U V W X Y Z # 

At Forest Edge Tabs (ver.1)

Vetiver
Rating:
5/5 (1 vote)

Hard to play? Try these video lessons and learn fast.
                Beautiful song by Vetiver, which doesn't have a rhythm guitar that plays the 
chords, but here they are. Use them as you see fit. I haven't tabbed all the 
guitar work, maybe I'll finish it later.

Main riff, has some variations on it during the song.
e|--------------------------------------|
B|--------------------------------------|
G|-7---7----9-7----7------7----9-7----9-|
D|-------10-----10-----10----------10---|
A|--------------------------------------|
E|--------------------------------------|

D
At forest edge
I swore I saw
A lovely young girl
(Did she smile?)
Yes, she seemed to smile right at me
So I stepped in
(Was it dark?)
Yes, the light was leaving
When came moving off the leaves, ohoh

G                  D
Where did she go?

Long branches wet, the firm and feel (couldn't quite understand the last bit)
To hide promises
No one would keep

G            F#       Bm
Wanting      to       catch a glimpse
e|-------------------------------9-10--10----|
B|-------12--------11---------12----------12-|
G|----12--------11---------11----------------|
D|-12--------11------------------------------|
A|-------------------------------------------|
E|-------------------------------------------|

   C           G           D              
   I           ran         deep  into the woods
e|-------------------------------------------|
B|-13-------13-12-------12-10----12-10-------|
G|----12----------12-------------------12-11-|
D|-------14----------12----------------------|
A|-------------------------------------------|
E|-------------------------------------------|

G
Moving across
G
I look back to find
      D
I was lost

Up ahead I hear her footsteps
But I don't see her anywhere
It's not like me to run off and leave the rest behind
(What have you made?)
ohoh, my way home
And just leave this girl and these woods alone
(Is she real?)
Real as I'll never know
                                         G
The setting sun she soon won't show a thing
                         D
I've got to find a path
                 G
through the trees
                            D
I've got to find my own way
      G                                D
Tonight, I've got to find the right way
            
Hard to play? Try these video lessons and learn fast. | Correct




comments powered by Disqus
↑ Back to top | Tablatures and chords are parodies/interpretations of the original songs. You may use it for private study, scholarship, research or language learning purposes only