» » »

Vete A La Versh, El Chancro Voraz Tabs (ver.1)

Artists:  A B C D E F G H I J K L M N O P Q R S T U V W X Y Z # 

El Chancro Voraz Tabs (ver.1)

Vete A La Versh Tabs
 Rating:
4.2/5 (5 votes)
El Chancro Voraz lessons Tabs too difficult? Try these video lessons and learn fast
                @all rights are from darkar Co. I'm not the owner of anything related to this song this 
only a transcription.

I didn't made the guitar pro cuz i was fighting with the timings (really hard are they) 
i decided to do this, u'll get it soon listening to the song, any correctio or question 
enjoy :D


Viva mexico cabrones, este wey es la verga :D

Codes:

 h: hammer on
 p: pull off
 ~: Let ring

Chords:
 G (sol) |---3---|   D (re) |---2---|   C (do) |---0---|
         |---3---|          |---3---|          |---1---|
         |---0---|          |---2---|          |---0---|
         |---0---|          |---0---|          |---2---|
         |---2---|          |-------|          |---3---|
         |---3---|          |-------|          |-------|

Intro + 1 riff

G                        D                    C               D
---3---------- 3------|-------------2h3p2--|-----------------|-2--------2h3-|
---------3------------|-------3------------|-1---1----1h3p1--|------3-------|
------0-----0-----0---|----2-----2---------|---0---0--------0|----2---2-----|
----------------------|-0------------------|-----------------|-0------------|
----------------------|--------------------|-3---------------|--------------|
---3-----3------------|--------------------|-----------------|--------------|
(intro) x2
(riff) x4
Ya es de noche y no lo entiendo            |mi huevo se empieza a calentar.
Una comezon del Infierno                   |creo que procedere a rascar


  G                D                   C               D
--3---3----------|-2---2------------|--0--0---------|--2---2--------------|
--3---3----------|-3---3------------|--1--1---------|--3---3--------------|
--0---0----------|-2---2------------|--0--0---------|--2---2--------------|
--0---0----------|-0---0------------|--2--2---------|--0---0--------------|
--2---2----------|------------------|---------------|---------------------|
--3---3----------|------------------|---------------|---------------------|
Y levanto la sabana,                me agarro la banana,
la hago a un ladito                 para poder observar
Es un ente muy peludo,              doy un grito muy agudo
pues parece que mi suerte           se acaba de terminar.


 C            C             D
-0--0---------------0--0-----------|-2 ~~~~~~ ------------|
-1--1-------x--x----1--1----x--x---|-3 ~~~~~~ ------------|
-0--0-------x--x----0--0----x--x---|-2 ~~~~~~ ------------|
-2--2-------x--x----2--2----x--x---|-0 ~~~~~~ ------------|
-3--3-------x--x----3--3----x--x---|----------------------|
-----------------------------------|----------------------|
Soy víctima de un monstruo    mortaaaaaaal,

(outro) x4
G                        D                    C               D
---3---------- 3------|-------------2h3p2--|-----------------|-2--------2h3-|
---------3------------|-------3------------|-1---1----1h3p1--|------3-------|
------0-----0-----0---|----2-----2---------|---0---0--------0|----2---2-----|
----------------------|-0------------------|-----------------|-0------------|
----------------------|--------------------|-3---------------|--------------|
---3-----3------------|--------------------|-----------------|--------------|
El chancro Voraaaaaaz...
            
Submit corrections

comments powered by Disqus
↑ Back to top | Vete A La Versh Tabs for El Chancro Voraz. Lyrics for acoustic guitar and electric guitar. Tablatures and chords are parodies/interpretations of the original songs. You may use it for private study, scholarship, research or language learning purposes only