» » »

Spoonful Of Sugar Bass tabs (ver.1)

Artists:  A B C D E F G H I J K L M N O P Q R S T U V W X Y Z # 

Spoonful Of Sugar Bass tabs (ver.1)

Verve Pipe
Rating:
0/5 (0 votes)

Tabs too difficult? Try these video lessons and learn fast.
                
Intro (just drums the 1st two measures):
G----------------|----------------|----------------|
D----------------|----------------|----------------|
A----------------|----------------|----------------|
E----------------|----------------|------------12\-|
 1 * 2 * 3 * 4 *  1 * 2 * 3 * 4 *  1 * 2 * 3 * 4 *  
                                         
G-----------------------------------------| X3 
D-----------------------------------------| 
A-----------------------------------------|
E-0----12-0-10---9-0---0---7-0--5----4----|
  1    *    2    *    3    *    4    *     

G-------------------------------------------| 
D-------------------------------------------| 
A-------------------------------------------|
E-0----12-0-10---9-0---0---7-0--15-15-15-15-|
  1    *    2    *    3    *    4     *     

G-----------------------------------------| X3 
D-----------------------------------------| 
A-----------------------------------------|
E-0----12-0-10---9-0---0---7-0--5----4----|
  1    *    2    *    3    *    4    *     

G-------------------------------------------| 
D-------------------------------------------| 
A-------------------------------------------|
E-0----12-0-10---9-0---0---7-0--15-15-15-15-|
  1    *    2    *    3    *    4     *     

1st Verse:
G-----------------------------------------| X3 
D-----------------------------------------| 
A-----------------------------------------|
E-0----12-0-10---9-0---0---7-0--5----4----|
  1    *    2    *    3    *    4    *     

G-------------------------------------------| 
D-------------------------------------------| 
A-------------------------------------------|
E-0----12-0-10---9-0---0---7-0--15-15-15-15-|
  1    *    2    *    3    *    4     *     

G-----------------------------------------| X4
D-0----12-0-10---9-0---0---7-0--5----4----|
A-----------------------------------------| 
E-----------------------------------------|
  1    *    2    *    3    *    4    *     

Pre-Chorus/Chorus:
G---------4---4-------------------|-----------------------------------------|
D-----4-------------------4---4---|-----------------------------------------|
A-2-----2-------------4-----------|-0----7-0--12---12-------------7-5--0----|
E---------------2--2----2---------|-------------------0--0---7-0------------| 
  1   *   2   *   3   *   4   *     1    *    2    *    3    *    4    *      

G---------4---4-------------------|-----------------------------------------|
D-----4-------------------4---4---|-----------------------------------------|
A-2-----2-------------4-----------|-0----7-0--12------------------7-5--0----|
E---------------2--2----2---------|----------------0-----0---7-0------------| 
  1   *   2   *   3   *   4   *     1    *    2    *    3    *    4    *    

G---------4---4-------------------|-----------------------------------------|
D-----4-------------------4---4---|-----------------------------------------|
A-2-----2-------------4-----------|-0----7-0--12---12-------------7-5--0----|
E---------------2--2----2---------|-------------------0--0---7-0------------| 
  1   *   2   *   3   *   4   *     1    *    2    *    3    *    4    *      

G---------4---4-------------------|-----------------------------------------|
D-----4-------------------4---4---|-----------------------------------------|
A-2-----2-------------4-----------|-0----7-0--12------------------7-5--0----|
E---------------2--2----2---------|----------------0-----0---7-0------------| 
  1   *   2   *   3   *   4   *     1    *    2    *    3    *    4    *    

Interlude Before 2nd Verse (play twice):
G-----------------------------------------|
D-----------------------------------------|
A-----------------------------------------|
E-0----12-0-10---9-0---0---7-0--5----4----|
  1    *    2    *    3    *    4    *       

G-------------------------------------------|
D-------------------------------------------|
A-------------------------------------------|
E-0----12-0-10---9-0---0---7-0--15-15-15-15-|
  1    *    2    *    3    *    4     *

2nd Verse:
G-----------------------------------------| X3 
D-----------------------------------------| 
A-----------------------------------------|
E-0----12-0-10---9-0---0---7-0--5----4----|
  1    *    2    *    3    *    4    *     

G-------------------------------------------| 
D-------------------------------------------| 
A-------------------------------------------|
E-0----12-0-10---9-0---0---7-0--15-15-15-15-|
  1    *    2    *    3    *    4     *     

G-----------------------------------------| X4
D-0----12-0-10---9-0---0---7-0--5----4----|
A-----------------------------------------| 
E-----------------------------------------|
  1    *    2    *    3    *    4    *     

Pre-Chorus/Chorus:
G---------4---4-------------------|-----------------------------------------|
D-----4-------------------4---4---|-----------------------------------------|
A-2-----2-------------4-----------|-0----7-0--12---12-------------7-5--0----|
E---------------2--2----2---------|-------------------0--0---7-0------------| 
  1   *   2   *   3   *   4   *     1    *    2    *    3    *    4    *      

G---------4---4-------------------|-----------------------------------------|
D-----4-------------------4---4---|-----------------------------------------|
A-2-----2-------------4-----------|-0----7-0--12------------------7-5--0----|
E---------------2--2----2---------|----------------0-----0---7-0------------| 
  1   *   2   *   3   *   4   *     1    *    2    *    3    *    4    *     

G---------4---4-------------------|-----------------------------------------|
D-----4-------------------4---4---|-----------------------------------------|
A-2-----2-------------4-----------|-0----7-0--12---12-------------7-5--0----|
E---------------2--2----2---------|-------------------0--0---7-0------------| 
  1   *   2   *   3   *   4   *     1    *    2    *    3    *    4    *      

G---------4---4-------------------|-------------------------------|---------|
D-----4-------------------4---4---|-------------------------------|---------|
A-2-----2-------------4-----------|-0----7-0--12----(let ring)----|---------|
E---------------2--2----2---------|----------------0--------------|---------| 
  1   *   2   *   3   *   4   *     1    *    2    *  3  *  4  *    1 * 2 * 
                                                           
Guitar Solo:
G-------------------------------------|----------------------------------------|
D-------------------------------------|----------------------------------------|
A-0--12-0-10---9-0---0---7-0--5---4---|-0--12-0-10---9-0---0---10-0-12-0--15---|
E-------------------------------------|----------------------------------------|
  1  *    2    *    3    *    4   *     1  *    2    *    3    *    4     *     

G-------------------------------------|----------------------------------------|
D-------------------------------------|----------------------------------------|
A-0--12-0-10---9-0---0---7-0--5---4---|-0--12-0-10---9-0---0---10-0-12-0--15---|
E-------------------------------------|----------------------------------------|
  1  *    2    *    3    *    4   *     1  *    2    *    3    *    4     *      

G-------------------------------------|----------------------------------------|
D-------------------------------------|----------------------------------------|
A-0--12-0-10--9-0---0---10-0-12-0-15--|-0--12-0-10--9-0---0---10-0-12-0--15-15-|
E-------------------------------------|----------------------------------------|
  1  *    2   *    3    *    4    *     1  *    2   *    3    *    4     *      

G-------------------------------------|----------------------------------------|
D-------------------------------------|--------------------------------0-2-4---|
A-0--12-0-10---9-0---0---7-0--5---4---|-0--12-0-10--9-0--15-14-12-0------------|
E-------------------------------------|----------------------------------------|
  1  *    2    *    3    *    4   *     1  *    2   *    3    *    4     *       

G---------4---4-------------------|-----------------------------------------| X2
D-----4-------------------4---4---|-----------------------------------------|
A-2-----2-------------4-----------|-0----7-0--12---12-------------7-5--0----|
E---------------2--2----2---------|-------------------0--0---7-0------------| 
  1   *   2   *   3   *   4   *     1    *    2    *    3    *    4    *      

Just Bass & Drums:
G---------4---4-------------------|-----------------------------------------| X3
D-----4-------------------4---4---|-----------------------------------------|
A-2-----2-------------4-----------|-0----7-0--12---12-------------7-5--0----|
E---------------2--2----2---------|-------------------0--0---7-0------------| 
  1   *   2   *   3   *   4   *     1    *    2    *    3    *    4    *      

G---------4---4-------------------|-----------------------------------------|
D-----4-------------------4---4---|-----------------------------------------|
A-2-----2-------------4-----------|-0----7-0--12------------------7-5--0----|
E---------------2--2----2---------|----------------0-----0---7-0------------| 
  1   *   2   *   3   *   4   *     1    *    2    *    3    *    4    *

Last Chorus:
G---------4---4-------------------|-----------------------------------------|
D-----4-------------------4---4---|-----------------------------------------|
A-2-----2-------------4-----------|-0----7-0--12---12-------------7-5--0----|
E---------------2--2----2---------|-------------------0--0---7-0------------| 
  1   *   2   *   3   *   4   *     1    *    2    *    3    *    4    *      

G---------4---4-------------------|-----------------------------------------| X3
D-----4-------------------4---4---|-----------------------------------------|
A-2-----2-------------4-----------|-0----7-0--12------------------7-5--0----|
E---------------2--2----2---------|----------------0-----0---7-0------------| 
  1   *   2   *   3   *   4   *     1    *    2    *    3    *    4    *     

G---------4---4-------------------|-----------------------------------------| X3
D-----4-------------------4---4---|-----------------------------------------|
A-2-----2-------------4-----------|-0----7-0--12---12-------------7-5--0----|
E---------------2--2----2---------|-------------------0--0---7-0------------| 
  1   *   2   *   3   *   4   *     1    *    2    *    3    *    4    *      

G-----------------|-----------------|-----------------|
D-----------------|-----------------|-----------------|
A-2---------------|-----------------|-----------------|
E-----------------|-2-----------2/--|-14--------------|
  1 * 2 * 3 * 4 *   1 * 2 * 3 * 4 *   1 * 2 * 3 * 4 *

End
		
            
Tabs too difficult? Try these video lessons and learn fast.




comments powered by Disqus
↑ Back to top | Tablatures and chords are parodies/interpretations of the original songs. You may use it for private study, scholarship, research or language learning purposes only