» » »

This Is Music Bass tabs (ver.1)

Artists:  A B C D E F G H I J K L M N O P Q R S T U V W X Y Z # 

This Is Music Bass tabs (ver.1)

Verve
Rating:
0/5 (0 votes)

Hard to play? Try these video lessons and learn fast.
                Intro (Distorted)

G|----------------------|---------------------|
D|----------------------|---------------------|
A|----------------------|---5.--5-------------|
E|-0-3.--3-3-5-5-5-0-0.-|-0-------3-5-5-5-0-0-|

Main Riff ("I stand accused...")

G|-------------|-------------|-----------------|
D|--2-2.-2p0---|-/5-5.-2p0---|-----------------|
A|-----------2-|-----------2-|-5-5.-2p0--------|
E|-0-----------|-------------|----------3B-0-0-|

Chorus ("I've been on the shelf...")

G|-----------------------|
D|-----------------------|
A|-----------------------|
E|-0-0h3-3-5-3/5-5p0-0---|

Outro ("Jesus never saved me...")

G|------------------|------------------|
D|--2-2-2-2---------|------------------|
A|----------5-5-5-5-|-4-4-4-4-2p0------|
E|-0----------------|-------------3B-0-|

There we go, simple but effective.
Watch the timing BTW - It's totally different from the guitar.
I've tried to indicate some form of timing - the octave jump is very
quick.

Anyone out there got any more Verve bass-lines? Esp. "Slide Away".
Jimbo


"I stand accused just like you,
For being born without a silver spoon,
Stood at the top of the hill,
Over my town I was found."

-Richard Ashcroft, "This is music" by the Verve
            
Hard to play? Try these video lessons and learn fast. | Correct




comments powered by Disqus
↑ Back to top | Tablatures and chords are parodies/interpretations of the original songs. You may use it for private study, scholarship, research or language learning purposes only