» » »

Love Is Noise Bass tabs (ver.2)

Artists:  A B C D E F G H I J K L M N O P Q R S T U V W X Y Z # 

Love Is Noise Bass tabs (ver.2)

Verve
Rating:
5/5 (1 vote)

Hard to play? Try these video lessons and learn fast.
                The Verve are back with great new single Love Is Noise off the album Forth. Here is the 
tab for the song.


Tuning: Standard

Intro

G|------------------------------------------------------|
D|------------------------------------------------------|
A|-----------5-----3------------------------------------|
E|0-----2-3---------------------------------------------|

Whole Song except minor break

G|-------------------------------------------------------------------|
D|-------------------------------------------------------------------|
A|-------------------------------5-5-5-5-5-5-5-4-3-3-3-3-3-3-3-3-----|
E|0-0-0-0-0-0-0-2-3-3-3-3-3-3-3-3------------------------------------|

Minor Break
There are 2 ways of playing this:the real way and the way I like to play it.

Real Way

G|-------------------------------|
D|-------------------------------|
A|------------------5------4-3---|(x2)
E|0------2-3---------------------|

then...
G|-------------------------------------|
D|-------------------------------------|
A|-------------------------------------|
E|12-(x9)-10(x16)-8(x7)----------------|

My Way

I like to play the same as the main riff throughout but just an octive up, so....
G|----------------7--------6-5-------------------|
D|2------4-5-------------------------------------|
A|-----------------------------------------------|
E|-----------------------------------------------|

Rate well!
            
Hard to play? Try these video lessons and learn fast. | Correct




comments powered by Disqus
↑ Back to top | Tablatures and chords are parodies/interpretations of the original songs. You may use it for private study, scholarship, research or language learning purposes only