» » »

Verve, Sonnet Tabs (ver.1)

Artists:  A B C D E F G H I J K L M N O P Q R S T U V W X Y Z # 

Sonnet Tabs (ver.1)

Verve Tabs
 Rating:
4.7/5 (15 votes)
Sonnet lessons Tabs too difficult? Try these video lessons and learn fast
1
                
 Verse Tab:
C                              Em
E|------0-------3-------------|------0-------0---------------------|
B|------1-------1-------------|------0-------0---------------------|
G|--0---0---0---0------0--0---|------0-------0---------------------|
D|--2-------2---2------2--2---|--2---2---2---2---------------------|
A|--3-------3----------3--3---|--2-------2---2---------------------|
E|----------------------------|--0-------0-------------------------|

 Am                             F 
E|--0---0---------0--0--------|------1-------3---------------------|
B|--1---1---1--0--1--0--------|------1-------1---------------------|
G|--2---2---2--2--2--2--------|--2---2---2---2---------------------|
D|--2---2---2--2--2--2--2--2--|--3---3---3---3---------------------|
A|--0---0---0--0--0--0--0--0--|--3---3---3-------------------------|
E|----------------------------|--1---------------------------------|

Chours:
 F                         G
E|-1--1--1---1--1--1--1--|-3--3--3---3--3--3--3---|
B|-1--1--1---1--1--1--1--|-3--3--3---3--3--3--3---|
G|-2--2--2---2--2--2--2--|-4--4--4---4--4--4--4---|
D|-3--3--3---3--3--3--3--|-5--5--5---5--5--5--5---|
A|-3--3--3---3--3--3--3--|-5--5--5---5--5--5--5---|
E|-1--1--1---1--1--1--1--|-3--3--3---3--3--3--3---|

   Em                         F                        G  F
E|-0--0--0---0--0--0----0|-1--1--1---1--1--1--1--------3--1---------|
B|-0--0--0---0--0--0----0|-1--1--1---1--1--1--1--------3--1---------|
G|-0--0--0---0--0--0----0|-2--2--2---2--2--2--2--------4--2---------|
D|-2--2--2---2--2--2----2|-3--3--3---3--3--3--3--------5--3---------|
A|-2--2--2---2--2--2----2|-3--3--3---3--3--3--3--------5--3---------|
E|-0--0--0---0--0--0----0|-1--1--1---1--1--1--1--------3--1---------|

Optional Riff: (Can Be Played Behinf Chords in both chorus and verse)

Fill 1:
E|-----------------------------------------------------------------|
B|-----------------------------------------------------------------|
G|--12/14----------------------------------------------------------|
D|---------12/14---10/12---------14--------12h14h12--10---------10-|
A|------------------------10/12--------------------------10h12-----|
E|-----------------------------------------------------------------|

Fill 2:
E|-----------------------------------------------------------------|
B|------13b(1/4)---------------------------------------------------|
G|--14------------12--14-------------------------------------------|
D|-------------------------------12-/-14---12h14h12------------10--|
A|--------------------------------------------------10h12h10-------|
E|-----------------------------------------------------------------|

Fill 3:
   with wah pedal
E|-----------------------------------------------------------------|
B|-----------------------------------------------------------------|
G|-----------------------------------------------------------------|
D|--12-------------------------------------------------------------|
A|-----------------------------------------------------------------|
E|-----------------------------------------------------------------|

Fill 4:
E|------------------------------------------------------------------|
B|------------------------------------------------------------------|
G|--12/14\12--------------------------------------------------------|
D|------------12/14---10/12---------10-----------10------12/14------|
A|---------------------------10h12---------------10h12--------------|
E|--------------------------------------10h12-----------------------|

Fill 5:
E|--------------------------------------------------------------------|
B|--------------------------------------------------------------------|
G|------------------------------------------------12------------------|
D|--12b(14)b12--h10--------------------12---12/14----14\12--10--------|
A|-------------------10h12--------------------------------------10h12-|
E|--------------------------10-10h12----------------------------------|

Solo:
E|-----------------------------------------------------------------------|
B|-----------------------------------------------------------------------|
G|-------7-----7-7------7------7---- 7--7----7h9--7h9--7-----------------|
D|--7/9----7/9------7/9--- 7/9---7/9---------------------10--10--10-9-7--|
A|-----------------------------------------------------------------------|
E|-----------------------------------------------------------------------|

E|-----------------------------------------------------------------|
B|-----------------------------------------------------------------|
G|--7h9--7h9--7----------------------------------------------------|
D|----------------10--10--10-9-7-----------------------------------|
A|-----------------------------------------------------------------|
E|-----------------------------------------------------------------|
            
Submit corrections

comments powered by Disqus
↑ Back to top | Verve Tabs for Sonnet. Lyrics for acoustic guitar and electric guitar. 1 Tablatures and chords are parodies/interpretations of the original songs. You may use it for private study, scholarship, research or language learning purposes only