>
 >
One Last Time

One Last Time Guitar Tabs

Veruca Salt - One Last Time chords, tabs, tablatures, lyrics

Guitar lessons | Add/correct | Request | Top 50 tabs Artists:  A B C D E F G H I J K L M N O P Q R S T U V W X Y Z 0-9

One Last Time Guitar Tabs – Veruca Salt

CD, Sheet music, Poster

Do you like One Last Time? Share with your friends now
Tabs
One Last Time-Veruca Salt
Eight Arms To Hold You


Drop D:
D A D G B E

6/8 time

Intro:

e-------3------------1------------0-------------------8-----------
b---------3------------1------------0----------------8------------
g-----------5--3---------3--2---2-----7-----7------10-------------
d-----3------------1----------------------5------8----------------
a---3------------1------------0------------------8----------------
d-3------------1------------0-----------5------8------------------

e-------3------------1------------0-----1--1---3--3---------------
b---------3------------1------------0---1--1---3--3---------------
g-----------5--3---------3--2---2-------3--3---5--5---------------
d-----3------------1--------------------3--3---5--5---------------
a---3------------1------------0---------1--1---3--3---------------
d-3------------1------------0-------------------------------------

1st Verse:

Gtr. 1 x2

e-3------------1------------1------------5------8---8-------------
b-3------------1------------3-------------------------------------
g-5------------3------------2------------7-----10--10-------------
d-3------------1------------0------------5------8---8-------------
a-----------------------------------------------------------------
d-----------------------------------------------------------------

Fig. 1 (Gtr. 2) x2

e------5-------------5------------5-----------------5-------------
b------6-------------6------------6-----------------6-------------
g------5-------------5------------7-----------------7-------------
d-----------------------------------------------------------------
a-----------------------------------------------------------------
d-----------------------------------------------------------------

Pre Chorus:

Fig. 2a (Gtr. 1)

e-3---------------5-------8------3---------------5------8---------
b-3---------------5--------------3---------------5----------------
g-5---------------7------10------5---------------7-----10---------
d-3---------------5-------8------3---------------5------8---------
a-----------------------------------------------------------------
d-----------------------------------------------------------------

Fig. 2 (Gtr. 2)

e-----------------------------------------------------------------
b-----------------------------------------------------------------
g-----------------------------------------------------------------
d-3---------------5-------8------3---------------5------8---------
a-----------------------------------------------------------------
d-3---------------5-------8------3---------------5------8---------

Fig. 2a cont

e-3------------------1--------------------------------------------
b-3------------------1--------------------------------------------
g-5------------------3--------------------------------------------
d-3------------------1--------------------------------------------
a-----------------------------------------------------------------
d-----------------------------------------------------------------

Fig. 2 cont.

e-----------------------------------------------------------------
b-----------------------------------------------------------------
g----------------------------8----------3---3------5---5----------
d-3--------------------------8----------3---3------5---5----------
a----------------------------6----------1---1------3---3----------
d-3---------------------------------------------------------------

Verse
Pre Chorus: Fig. 2b

e-----------------------------------------------------------------
b-----------------------------------------------------------------
g-----------------------------------------------------------------
d-3---3--3----3--5--5--5--8--8--8-3---3--3----3--5--5--5--8--8--8-
a-3---3--3----3--5--5--5--8--8--8-3---3--3----3--5--5--5--8--8--8-
d-3---3--3----3--5--5--5--8--8--8-3---3--3----3--5--5--5--8--8--8-

e-----------------------------------------------------------------
b-----------------------------------------------------------------
g----------------8---8--8--8--8--8---3--3------5--5---------------
d-3---3--3----3--8---8--8--8--8--8---3--3------5--5---------------
a-3---3--3----3--6---6--6--6--6--6---1--1------3--3---------------
d-3---3--3----3---------------------------------------------------

Chorus: Fig. 3 x3

e-----------------------------------------------------------------
b-----------------------------------------------------------------
g--------3--3--3---------3--3--3---------3--3--3--6--------6------
d-0------3--3--3--0------3--3--3--0------3--3--3--6--------6------
a-0------1--1--1--0------1--1--1--0------1--1--1--4--------4------
d-0---------------0---------------0-------------------------------

Riff A x3

e-8--8--8--8--8--8--8--8--8--8--8--8--8--8--8--8------------------
b-6--6--6--6--6--6--6--6--6--6--6--6--6--6--6--6----9--9-----9--9-
g-----------------------------------------------------------------
d-----------------------------------------------------------------
a-----------------------------------------------------------------
d-----------------------------------------------------------------

Fig. 4

e---------------8----------3-------------------5------------------
b--------------------8-----3-------3-3-3--3----5------------------
g10-------10---------------5----------------5--7------------------
d10----10------------------5----5--------------7------------------
a-8------------------------3-------------------5------------------
d-8------------------------3--------------------------------------

Interlude:

F5                Eb5            D5               G5      Bb5

e-----------------------------------------------------------------
b--------------13-------------------------------------------------
g-------/14-------12----------10-12---10-------10-12---10---------
d----10--------------------12---------------12------------12---10-
a-----------------------------------------------------------------
d-----------------------------------------------------------------

F5                  Eb5           D5             G5         Bb5

e-----------------------------------------------------------------
b-----------------13----------------------------------------------
g---------/14-------12---------10-12---10-----10-12br----10-------
d-10---10-------------------h12-------------12--------------12-10-
a-----------------------------------------------------------------
d-----------------------------------------------------------------

Guitar Solo: Gtr. V

e-10-------10-10-10------10-10-10-------------13-10----10---------
b-13b~~~~~-13-13-13b~~~~-13-13-13b~~~~r-10-13-------13----13-10---
g-----------------------------------------------------------------
d-----------------------------------------------------------------
a-----------------------------------------------------------------
d-----------------------------------------------------------------

e-10------10/12-12---------13--------10-12-13-12-13-15-15br-13----
b-13b~~~~-------15b~~~~-15-16b~~~~~~------------------------------
g-----------------------------------------------------------------
d-----------------------------------------------------------------
a-----------------------------------------------------------------
d-----------------------------------------------------------------

e-13br-12-12br-10-10----10--12-10-12/13-12h13-15-13-15/17-15h17/20
b--------------------13-------------------------------------------
g-----------------------------------------------------------------
d-----------------------------------------------------------------
a-----------------------------------------------------------------
d-----------------------------------------------------------------

e-20--20--/22--22--22\18---18---------18br--17------15--13-10-----
b-------------------------------------------------------------11--
g-----------------------------------------------------------------
d-----------------------------------------------------------------
a-----------------------------------------------------------------
d-----------------------------------------------------------------

Outro:

Fig. 5 
e-----------------------------------------------------------------
b-----------------------------------------------------------------
g-5------5--5-----3----3--3--3-----2------2--2-----7----7-10-10---
d-3------3--3-----1----1--1--1-----0------0--0-----5----5--8--8---
a-3------3--3-----1----1--1--1-----0------0--0-----5----5--8--8---
d-3------3--3--0--1----1--1--1--0--0------0--0--0--5----5--8--8--0

thatís all

trevor jones





Comments


Popular Veruca Salt tabs & chords
Number One Blind Bass Tabs
Seether Bass Tabs
Used To Know Her 1 Bass Tabs
Celebrate You Chords
Aurora Tabs
Loneliness Is Worse Tabs
Shimmer Tabs
Shutterbug 1 Tabs
Twinstar 1 Tabs
Shes A Brain Ukulele


Song lyrics



↑ Back to top | Tablatures and chords are parodies/interpretations of the original songs. You may use it for private study, scholarship, research or language learning purposes only
© 2014 AZChords.com Contact us | Privacy policy | DMCA | Add/correct tabs | Request tabs | Top 50 tabs