» » »

Number One Blind Bass tabs (ver.1)

Artists:  A B C D E F G H I J K L M N O P Q R S T U V W X Y Z # 

Number One Blind Bass tabs (ver.1)

Veruca Salt
Rating:
0/5 (0 votes)

Hard to play? Try these video lessons and learn fast.
                Tuning: Standard 
Authors: Nina Gordon and Jim Shapiro 


Intro/Verse 
During the first couple of these the end isn't as long as it is when Nina is singing.                             

G|----------------------| 
D|----------------------| 
A|---------4-4-4--------| 
E|-4-4-4-0-------5-2-2-2| 

Pre-Chorus 

G|--------------| 
D|--------------| 
A|--------------| 
E|-4-4-4-4-4-4-4| etc... 

Chorus A 
                     
G|------------------| 
D|------------------| 
A|------------------| 
E|-7-7-4-4-9-9-9-6-6| 

Chorus B 

G|-------------------------------| 
D|-------------------------------| 
A|---------------------7-------9-| 
E|-7-7-7-4-4-9-9-7-5-5-----7-7---| 

Bridge 

G|-----------------------| 
D|-----------------------| 
A|-9-----9-----9-----9---| 
E|----9-----9-----9-----9| 

Solo 
It's pretty much just Chorus A... 

G|--------------------| 
D|--------------------| 
A|--------------------| 
E|-7-7-7-4-4-9-9-9-6-6| 


Song Order: 

Intro/Verse 8X 
Pre-Chorus  1X 
Chorus      3X 
Verse       6X 
Pre-Chorus  1X 
Chorus      3X 
Bridge      1X 
Solo        4X 
Chorus      6X 
Solo/Outro  10X or till fade out 

That's the song. It's quite easy and an awesome song. Enjoy! 
            
Hard to play? Try these video lessons and learn fast. | Correct




comments powered by Disqus
↑ Back to top | Tablatures and chords are parodies/interpretations of the original songs. You may use it for private study, scholarship, research or language learning purposes only