» » »

Veruca Salt, I'm Taking Europe With Me Tabs (ver.1)

Artists:  A B C D E F G H I J K L M N O P Q R S T U V W X Y Z # 

I'm Taking Europe With Me Tabs (ver.1)

Veruca Salt Tabs
Rating:
0/5 (0 votes)
I'm Taking Europe With Me lessons Tabs too difficult? Try these video lessons and learn fast
                *******************
*  Drop D tuning  *
*   D-A-D-G-B-E   *
*******************

P.M.= palm mute


Intro:
Main Riff:
E|-----------------------|
B|-----------------------|
G|-----------------------|
D|--5-0-3-0-2-0-0-0-0-0--|
A|--5-0-3-0-2-0-0-0-0-0--|
D|--5-0-3-0-2-0-0-0-0-0--|


Verse: 0:16
E|---------------------------------|
B|---------------------------------|
G|---------------------------------|
D|---------------------------------|
A|--0-0-0-0-0-0-0-0-0-0-0-0-0-0-0--|
D|--0-0-0-0-0-0-0-0-0-0-0-0-0-0-0--|
    P.M..........................


Chorus: 0:42  I think I just might...
E|----------------|
B|----------------|
G|----------------|
D|--6-6/12-12-12--|  Play 3 times
A|--6-6/12-12-12--|
D|--6-6/12-12-12--|


Then on the 4th time play this
E|-----------|
B|-----------|
G|-----------|
D|--6-6-5-5--|
A|--6-6-5-5--|
D|--6-6-5-5--|


Now play the complete chorus again for a second
time but let the 5's ring out at the end when it 
gets to the "ooh ooh ho" part.


Then it goes back to the main riff but now after
all those 0's, hit the 5 chord and let it ring out.


quiet part: 2:07  play softly
E|------------------------------------|
B|------------------------------------|
G|------------------------------------|
D|--0-0-0-0-0-0-0-0--5-5-5-5-5-5-5-5--| play over and over
A|--0-0-0-0-0-0-0-0--5-5-5-5-5-5-5-5--| until the bar below
D|--0-0-0-0-0-0-0-0--5-5-5-5-5-5-5-5--|


2:37
E|---------------|
B|---------------|
G|---------------|
D|--4-4-4-4-4/5--|
A|--4-4-4-4-4/5--|
D|--4-4-4-4-4/5--|


2:42
E|---------------------|
B|---------------------|
G|---------------------|
D|---------------------| repeat this over and over until below
A|--5-5-0-0-0-0-0-0-0--|
D|--5-5-0-0-0-0-0-0-0--|


3:23
E|-----------------------------|
B|-----------------------------|
G|-----------------------------|
D|-----------------------------| play this until the it fades out
A|--0-0-0-0-0-0-0-0-0-0-0-0-0--|
D|--0-0-0-0-0-0-0-0-0-0-0-0-0--|


Thats the whole song.  Everything is 100% correct.
You should be able to figure out what goes where and
when to play it.  I think this is probably the easiest
Veruca Salt song to play.
            
Submit corrections

comments powered by Disqus
↑ Back to top | Veruca Salt Tabs for I'm Taking Europe With Me. Lyrics for acoustic guitar and electric guitar. Tablatures and chords are parodies/interpretations of the original songs. You may use it for private study, scholarship, research or language learning purposes only