>
 >
You're A God

You're A God Guitar Tabs

Vertical Horizon - You're A God chords, tabs, tablatures, lyrics

Guitar lessons | Add/correct | Request | Top 50 tabs Artists:  A B C D E F G H I J K L M N O P Q R S T U V W X Y Z 0-9

You're A God Guitar Tabs – Vertical Horizon

CD, Sheet music, Poster

Do you like You're A God? Share with your friends now
Bass TabsChordsTabsTabs v2Tabs v3
Vertical Horizon 
You're a god 

           ---------------------
               YOU'RE A GOD
           ---------------------

Tune down 1 half step:
Eb,Ab,Db,Gb,Bb,Eb

Main riff:

e-----------------------------------------------------------I
b-----------------------------------------------------------I
g-------4-4-x----4-4-------4-4-x----4-4------4-4-x-----4-4--I
d-------4-4-x----4-4-------4-4-x----4-4------4-4-x-----4-4--I
a--2-2---------2--------------------------------------------I
e---------------------4-4--------4-------2-2-------2--------I

e-------------------------------------------------------I
b-------------------------------------------------------I
g-------4-4-x------4-4----------------------------------I
d-------4-4-x------4-4----------------------------------I
a-------2-2-x------2-2----------------------------------I
e--0-0----------0---------------------------------------I



Vs 1
Main riff
I've gotta be honest

I think you know

We're covered in lies and that's OK
Main riff
There's somewhere beyond this I know

But I hope I can find the words to say


Pre-chorus:
G      A
Never again, no
G          A
No, never again


Chorus:
Main riff 
'Cause you're a god

And I am not 

And I just thought that

you would know 
Main riff
You're a god 

and I am not 

and I just thought 
                  Bsus
I'd let you go 


Verse 2(same as verse 1)
I've been unable to put you down 
I'm still learning things I ought to know by now
It's under the table so
I need something more to show somehow 

Pre-chorus

Chorus

Instrumental (guitar 1 and guitar 2 play simultaneously)
Guitar 1
e----------------------------------------------I
b----------------------------------------------I
g--------6-6-6-6-6-6-6-6--2-2-2-2-2-2-2-2--4-4-I
d--------6-6-6-6-6-6-6-6--2-2-2-2-2-2-2-2--4-4-I
a------2-4-4-4-4-4-4-4-4--0-0-0-0-0-0-0-0--2-2-I
e--2h4-----------------------------------------I

e-----------------------------I
b-----------------------------I
g-11--9--8----4-4---9--8-11---I
d--x--x--x----4-4---x--x--x---I
a--9--7--6----2-2---7--6--9---I
e-----------------------------I

e------------------------------------I
b------------------------------------I
g--6-6-6-6-6-6-6-6--2-2-2-2-2-2-2-2--I
d--6-6-6-6-6-6-6-6--2-2-2-2-2-2-2-2--I
a--4-4-4-4-4-4-4-4--0-0-0-0-0-0-0-0--I
e------------------------------------I

e-------------------------------------------------I
b-------------------------------------------------I
g--4-4--11--9--8----4-4---9--8-11-----------------I
d--4-4---x--x--x----4-4---x--x--x-----------------I
a--2-2---9--7--6----2-2---7--6--9-----------------I
e-------------------------------------------------I

Guitar 2  (guitar 2 plays this riff TWICE!!)
e--------------------------------------------------------------------I
b--5-4---------------------------------------------------------------I
g-------6-6--4-------------------11--9--8---4-4----9--8-11-----------I
d----------------7--7--9h11po9----x--x--x---4-4----x--x--x-----------I
a---------------------------------9--7--6---2-2----7--6--9-----------I
e--------------------------------------------------------------------I


Play verse 1 again
pre-chorus
Chorus riff 2x

This riff is played in the last 2 choruses (it gets loud in the very last one)
e---------------------------------------------------------I
b14-14-14-12-12-16-16-12-14-14-14-12-12-16-16-12-14-14-14-I
g11-11-11-11-11-11-11-11-11-11-11-11-11-11-11-11-11-11-11-I
d---------------------------------------------------------I
a---------------------------------------------------------I
e---------------------------------------------------------I

e------------------------------------------I
b-12-12-16-16-12-12-12-12-12-12-12-12-12---I
g-11-11-11-11-11-13-13-13-13-13-11-11-11---I
d------------------------------------------I    
a------------------------------------------I
e------------------------------------------I    





Comments


Popular Vertical Horizon tabs & chords
Fast Car Chords
Inside Chords
Sunshine Chords
Trying To Find Purpose Chords
Youre A God 1 Chords
Everything You Want Tabs
Give You Back Tabs
We Are Tabs
Inside Ukulele
Sunshine Ukulele


Song lyrics



↑ Back to top | Tablatures and chords are parodies/interpretations of the original songs. You may use it for private study, scholarship, research or language learning purposes only
© 2014 AZChords.com Contact us | Privacy policy | DMCA | Add/correct tabs | Request tabs | Top 50 tabs