» » »

Vertical Horizon, You're A God Bass tabs (ver.1)

Artists:  A B C D E F G H I J K L M N O P Q R S T U V W X Y Z # 

You're A God Bass tabs (ver.1)

Vertical Horizon Tabs
 Rating:
4/5 (4 votes)
You're A God lessons Tabs too difficult? Try these video lessons and learn fast
1
                 
intro/verse:x3
G|-----------------------|
D|-----------------------|
A|-----------------------|
D|--8~~--5~~--3~~--1~~/--|
 
pre-chorus:x2
G|------------|
D|------------|
A|------------|
D|--4~~--6~~--|
 
chorus:x2                             end 2nd
G|-----------------------------------|-------|
D|-----------------------------------|-------|
A|-----------------------------------|-------|
D|--8--8-8--5--5-5--3--3-3--1--1-1/--|--8~~--|
 
verse2:x2
G|---------------------------------------|
D|---------------------------------------|
A|---------------------------------------|
D|--8--8-8--5--5-5--8\3--3-3-3--1--1-1/--|
 
pre-chorus2:x2
G|------------------------|
D|------------------------|
A|------------------------|
D|--4--4-4-4-8-6--6-6-6\--|
 
chorus2:x2
G|-----------------------------------|
D|-----------------------------------|
A|-----------------------------------|
D|--8--8-8--5--5-5--3--3-3--1--1-1/--|
 
bridge:x2
G|----------------------------|
D|----------------------------|
A|--33333333\-----------------|
D|------------66666666/8---8--|
 
verse2:x2
G|-----------------------------------------|
D|-----------------------------------------|
A|-----------------------------------------|
D|--8--8-8-12\5--5-5--8\3--3-3-3--1--1-1/--|
 
pre-chorus2:x2  
 
chorus2:x2
 
ending chorus:x2                                    end 2nd
G|-------------------------------------------------|-------|
D|-------------------------------------------------|-------|
A|-------------------------------------------------|-------|
D|--888888-12-8\555555-8-5\333333-5-3\111111-3-1/--|--8~~--|
 
 
HAVE FUN!!
            
Submit corrections

comments powered by Disqus
↑ Back to top | Vertical Horizon Bass for You're A God. Lyrics for acoustic guitar and electric guitar. 1 Tablatures and chords are parodies/interpretations of the original songs. You may use it for private study, scholarship, research or language learning purposes only