>
 >
Your A God

Your A God Guitar Tabs

Vertical Horizon - Your A God chords, tabs, tablatures, lyrics

Guitar lessons | Add/correct | Request | Top 50 tabs Artists:  A B C D E F G H I J K L M N O P Q R S T U V W X Y Z 0-9

Your A God Guitar Tabs – Vertical Horizon

CD, Sheet music, Poster

Do you like Your A God? Share with your friends now
Tabs
PROPS GO TO: Argenis Flores

chords for verse:    (bass notes Palm Muted)

  Bb                Bb/G              Bb/F               Eb
e----------------------------------------------------------------------------
B-------------------------------------------------------------4---------3----
G------3---------3-------3---------3-------3---------3--------3---------3----
D------3---------3-------3---------3-------3---------3---1--1----1--1-1------
A-1--1----1--1-1-------------------------------------------------------------
E-------------------3--3----3--3-3----1--1----1--1-1-------------------------

chords for pre-chorus
  F#               G#
 -------2----2-----------4--4-4-----
 -----2-2--2---2-------4----4-4-----
 ---3----------------5--------------
 -4----------------6----------------
 -----------------------------------
 -----------------------------------

chorus: (same chords as verse)   strumming   V  V  ^ PM ^-V

  Bb             Bb/G           Bb/F           Eb
 -----------------------------------------------------------------
 ----------------------------------------------4--4--4-x-3-3------
 -3--3--3-x-3-3--3--3--3-x-3-3--3--3--3-x-3-3--3--3--3-x-3-3------
 -3--3--3-x-3-3--3--3--3-x-3-3--3--3--3-x-3-3--1--1--1-x-1-1------
 -1--1--1-x-1-1--------------------------------1--1--1-x-1-1------
 ----------------3--3--3-x-3-3--1--1--1-x-1-1---------------------

solo: 
 --------------------------------------------------------------------------
 -------------4-4----------------------------------------------------------
 -(5)---8--7--5-5--3----------------(3)-10-10-10--8-7--(3)--8-8-8-7-10-----
 -(5)-----------------6~~~6h8/10-8--(3)----------------(3)-----------------
 -(3)-------------------------------(1)--8--8--8--6-5--(1)--6-6-6-5--8-----
 --------------------------------------------------------------------------

 ------------------------------|----------------------------------
 ---------6--8--9--8--6--------|-11-----9-----8---6---------------
 -(5)--8-----------------8~~10-|----------------------8---7h8-----
 -(5)--------------------------|----8-8---8-8---8---8---8---------
 -(3)--------------------------|----------------------------------
 ------------------------------|----------------------------------
  notes are right, but listen to the cd to hear how many times
 --------------------------------------------------------------------
 -3h4p3h4p3h4p3h4p3h4p3h4p3------------------------------------------
 ---------------------------3h5p3h5p3h5p3h5p3-----------------(3)----
 ---------------------------------------------3h5p3h5p3-------(3)----
 --------------------------------------------------------0h1---------
 --------------------------------------------------------------------

continue to verse
pre-chorus
end in chorus





Comments


Popular Vertical Horizon tabs & chords
Wasted 1 Bass Tabs
Best I Ever Had 4 Chords
Give You Back Chords
Lucky One Chords
Youre A God 3 Chords
Best I Ever Had Tabs
Everything You Want Intro Tabs
Everything You Want 2 Ukulele
Wont Go Away Ukulele
Youre A God Ukulele


Song lyrics



↑ Back to top | Tablatures and chords are parodies/interpretations of the original songs. You may use it for private study, scholarship, research or language learning purposes only
© 2014 AZChords.com Contact us | Privacy policy | DMCA | Add/correct tabs | Request tabs | Top 50 tabs