» » »

Vertical Horizon, We Are Tabs (ver.1)

Artists:  A B C D E F G H I J K L M N O P Q R S T U V W X Y Z # 

We Are Tabs (ver.1)

Vertical Horizon Tabs
 Rating:
4/5 (5 votes)
We Are lessons Tabs too difficult? Try these video lessons and learn fast
                Vertical Horizon - "We Are"
Standard Tuning - Capo 1st Fret, 
or play notes 1 fret higher than written


original song for this tab and tabbed what I could hear. Please rate 
or comment.


Intro: Rhythm - play 2x
  C                 Bb               Fm                Ab
|-----------------|-----------------|-----------------|-----------------|
|-0-0-0-0-0-0-0-0-|-0-0-0-0-0-0-0-0-|-----------------|-----------------|
|-4-4-4-4-4-4-4-4-|-2-2-2-2-2-2-2-2-|-0-0-0-0-0-0-0-0-|-0-0-0-0-0-0-0-0-|
|-4-4-4-4-4-4-4-4-|-2-2-2-2-2-2-2-2-|-2-2-2-2-2-2-2-2-|-0-0-0-0-0-0-0-0-|
|-2-2-2-2-2-2-2-2-|-0-0-0-0-0-0-0-0-|-2-2-2-2-2-2-2-2-|-2-2-2-2-2-2-2-2-|
|-----------------|-----------------|-0-0-0-0-0-0-0-0-|-3-3-3-3-3-3-3-3-|
                                              "We are            we are"

Guitar 2 during intro (some ad-lib of chords is added):
|-----------------|-----------------|-----------------|-----------------|
|-----------------|---------2-------|-----------------|-----------------|
|-----------------|---------4b6r4___|-----------------|-----------------|
|-----------------|-----------------|-----------------|-----------------|
|-----------------|-----------------|-----------------|-----------------|
|-----------------|-----------------|-----------------|-----------------|



Verse Guitar Part:
|-----2-----0-----|-5-----5-----5-0-|-----2-----0-----|-7-----7-----7---|
|---------0-----3-|-----3-----3-----|---------0-----5-|-----5-----5---5-|
|-4-4---2-----4---|---4-----4-------|-4-4---2-----4---|---4-----4-------|
|-----------------|-----------------|-----------------|-----------------|
|-----------------|-----------------|-----------------|-----------------|
|-----------------|-----------------|-----------------|-----------------|



Distorted Guitar 

Chorus - Play the Intro Part


Verse 2 - Play Verse Part Again


Chorus - Play the Intro Part



Break - play 4x
|---------------------|-------------------|
|---------------------|-------------------|
|-0--------0-------2--|-(2)---2-2-2-2-2-2-|
|-0--------0-------2--|-(2)---2-2-2-2-2-2-|
|------------------0--|-(0)---0-0-0-0-0-0-|
|-2--------3----------|-------------------|



Play Verse Again

Play Chorus for last time



Ending - play 2x
|-------------------|-----------------|-----------------|-----------------|
|-0-0-0-0-0---------|-0-0-0-0-0-0-0-0-|-----------------|-----------------|
|-4-4-4-4-4--/7\6/7-|-2-2-2-2-2-2-2-2-|-0-0-0-0-0-0-0-0-|-0-0-0-0-0-0-0-0-|
|-4-4-4-4-4---------|-2-2-2-2-2-2-2-2-|-2-2-2-2-2-2-2-2-|-0-0-0-0-0-0-0-0-|
|-2-2-2-2-2--/5\4/5-|-0-0-0-0-0-0-0-0-|-2-2-2-2-2-2-2-2-|-2-2-2-2-2-2-2-2-|
|-------------------|-----------------|-0-0-0-0-0-0-0-0-|-3-3-3-3-3-3-3-3-|

Finale
|----------------|
|----------------|
|-4-4-4----------|
|-4-4-4----------|
|-2-2-2----------|
|-2-2-2----------|



KEY
************************************

| /   slide up
| \   slide down
| h   hammer-on
| p   pull-off
| ~   vibrato
| +   harmonic
| x   Mute note
| b   Bend
| pb  Pre-bend
| r  Bend release
| pbr Pre-bend release
| brb Bend release bend

************************************
            
Submit corrections

comments powered by Disqus
↑ Back to top | Vertical Horizon Tabs for We Are. Lyrics for acoustic guitar and electric guitar. Tablatures and chords are parodies/interpretations of the original songs. You may use it for private study, scholarship, research or language learning purposes only