>
 >
Trying To Find Purpose 1

Trying To Find Purpose 1 Guitar Tabs

Vertical Horizon - Trying To Find Purpose 1 chords, tabs, tablatures, lyrics

Guitar lessons | Add/correct | Request | Top 50 tabs Artists:  A B C D E F G H I J K L M N O P Q R S T U V W X Y Z 0-9

Trying To Find Purpose 1 Guitar Tabs – Vertical Horizon

CD, Sheet music, Poster

Do you like Trying To Find Purpose 1? Share with your friends now
ChordsTabsTabs v2Ukulele
1/2 step down... capo 2nd fret


  E   A   B  C#m 
e-0- -0- -0- -0- 
b-0- -0- -0- -0- 
g-1- -2- -8- -6- 
d-4- -2- -9- -6- 
a-2- -0- -9- -4- 
E-0- -0- -7- -x- 
Intro: 
E for 4 measures. 

Verses: 
E A E 
Well the sun sets gently on your shoulders, it makes me want to touch you there, 
E A E 
And the light in your eyes makes me feel like there's something much better out there, 
C#m E 
Somthing kind 
Chorus: 
C#m A E 
And I know, someday I might be looking around, trying to find some purpose 
C#m A B 
Well purpose it can't be that hard to find, as long as I've got the wind, 
B (stop) E 
the wind and your love to carry me. 

End: 
B(stop) E C#m E C#m E C#m B A E 
The wind and your love, to carry me, oh, to carry me, please carry me.



Here's the solos:
(0:04)
E|-----------------------------------------------|
B|------11-12-11---------------------------------|
G|11-13----------13--11-13-11--------------------|
D|----------------------------13-11--------------|
A|----------------------------------13-11--------|
E|----------------------------------------13-11--|




About 1:43

E|------------5-4-----------------4-7-7---12-12-11----------------9-12
B|----5--7-5------5-7---------5-7-----------------12----------9-12----
G|4-6-----------------4---4-6-----------------------11-9--9-11--------
D|------------------------------------------------------11------------
A|--------------------------------------------------------------------
E|--------------------------------------------------------------------


E|7-11-7-9-7----------------------------------------------------------9
B|------------7-9-7-9-7----------7-------------------------------10/12-
G|----------------------9-7-9-7----9---9-8-6-4--------4-6-8-9-8-9------
D|---------------------------------------------7-6-7-------------------
A|---------------------------------------------------------------------
E|---------------------------------------------------------------------

E|--------------------------------12
B|12-10-9-----------------12-12/14--
G|--------11-9/8-9---11/13----------
D|----------------------------------
A|----------------------------------
E|----------------------------------





Comments


Popular Vertical Horizon tabs & chords
Everything You Want 3 Chords
Forever Chords
It's Over Chords
Song For Someone Chords
Sunshine Chords
Trying To Find Purpose Chords
Everything You Want Intro Tabs
Shackled 1 Tabs
Your A God Tabs
Lucky One Ukulele


Song lyrics



↑ Back to top | Tablatures and chords are parodies/interpretations of the original songs. You may use it for private study, scholarship, research or language learning purposes only
© 2014 AZChords.com Contact us | Privacy policy | DMCA | Add/correct tabs | Request tabs | Top 50 tabs