>
 >
Sunshine

Sunshine Guitar Tabs

Vertical Horizon - Sunshine chords, tabs, tablatures, lyrics

Guitar lessons | Add/correct | Request | Top 50 tabs Artists:  A B C D E F G H I J K L M N O P Q R S T U V W X Y Z 0-9

Sunshine Guitar Tabs – Vertical Horizon

CD, Sheet music, Poster

Do you like Sunshine? Share with your friends now
ChordsTabsUkulele
Tuning: Half-step down


Intro (dip & open the wah pedal slowly)
eb||-----------------------||
Bb||o---------------------o||
Gb||-----------------------||
Db||------------0----------||
Ab||o-------------4-0-2v--o||
Eb||---0-2-0-2-------------||

eb||----------------------------||
Bb||o--------------------------o||
Gb||------------7-x-6-x-2-x-4---|| 4x
Db||-----4---4--7-x-6-x-2-x-4---||
Ab||o--2-4-2-4--5-x-4-x-0-x-2--o||
Eb||---0-2-0-2------------------||

Verse

Guitar 1
eb||--0~~-|-0--0-0--0-0-|-0-0-0-0-|-0--0-0--0-0-|
Bb||--0~~-|-3--3-3--0-0-|-0-0-0-0-|-3--3-3--0-0-|
Gb||--4~~-|-2--2-2--2-2-|-x-x-x-x-|-2--2-2--2-2-|
Db||--4~~-|-0--0-0--2-2-|-4-4-4-4-|-0--0-0--2-2-|
Ab||------|-0--0-0--0-0-|-2-2-2-2-|-0--0-0--0-0-|
Eb||------|-------------|-0-0-0-0-|-------------|

Guitar 2
eb||--0~~-|-0--0-0-----0-|----0-----0-|-0--0-0-----0-|
Bb||--0~~-|-3--3-3-----0-|----0-----0-|-3--3-3-----0-|
Gb||--4~~-|-4--4-2-----2-|------------|-4--4-2-----2-|
Db||--4~~-|----------2---|--4-----4---|----------2---|
Ab||--2~~-|---------0----|-2-----2----|---------0----|
Eb||------|--------------|------------|--------------|

Guitar 1
eb|--0-0-0-0-|-0--0-0--0-0-|-0-0-0-0-|-0--0-0--0-0-||
Bb|--0-0-0-0-|-3--3-3--0-0-|-0-0-0-0-|-3--3-3--0-0-||
Gb|--x-x-x-x-|-2--2-2--2-2-|-x-x-x-x-|-2--2-2--2-2-||
Db|--4-4-4-4-|-0--0-0--2-2-|-4-4-4-4-|-0--0-0--2-2-||
Ab|--2-2-2-2-|-0--0-0--0-0-|-2-2-2-2-|-0--0-0--0-0-||
Eb|--0-0-0-0-|-------------|-0-0-0-0-|-------------||

Guitar 2
eb|-----0-----0-|-0--0-0-----0-|----0-----0-|-0--0-0-----0-||
Bb|-----0-----0-|-3--3-3-----0-|----0-----0-|-3--3-3-----0-||
Gb|-------------|-4--4-2-----2-|------------|-4--4-2-----2-||
Db|---4-----4---|----------2---|--4-----4---|----------2---||
Ab|--2-----2----|---------0----|-2-----2----|---------0----||
Eb|-------------|--------------|------------|--------------||

Chorus

Both guitars
eb||----------------------------|
Bb||o--------------------------o|
Gb||------------7-x-6-x-2-x-4---| 3x
Db||-----4---4--7-x-6-x-2-x-4---|
Ab||o--2-4-2-4--5-x-4-x-0-x-2--o|
Eb||---0-2-0-2------------------|

then
eb|-------------------||
Bb|-------------------||
Gb|-----------7-x-6-x-||
Db|----4---4--7-x-6-x-||
Ab|--2-4-2-4--5-x-4-x-||
Eb|--0-2-0-2----------||

Verse

Guitar 1
eb||--0~~-|-0--0-0--0-0-|-0-0-0-0-|-0--0-0--0-0-|
Bb||--0~~-|-3--3-3--0-0-|-0-0-0-0-|-3--3-3--0-0-|
Gb||--4~~-|-2--2-2--2-2-|-x-x-x-x-|-2--2-2--2-2-|
Db||--4~~-|-0--0-0--2-2-|-4-4-4-4-|-0--0-0--2-2-|
Ab||------|-0--0-0--0-0-|-2-2-2-2-|-0--0-0--0-0-|
Eb||------|-------------|-0-0-0-0-|-------------|

Guitar 2
eb||--0~~-|-0--0-0-----0-|----0-----0-|-0--0-0-----0-|
Bb||--0~~-|-3--3-3-----0-|----0-----0-|-3--3-3-----0-|
Gb||--4~~-|-4--4-2-----2-|------------|-4--4-2-----2-|
Db||--4~~-|----------2---|--4-----4---|----------2---|
Ab||--2~~-|---------0----|-2-----2----|---------0----|
Eb||------|--------------|------------|--------------|

Guitar 1
eb|--0-0-0-0-|-0--0-0--0-0-|-0-0-0-0-|-0--0-0--0-0-||
Bb|--0-0-0-0-|-3--3-3--0-0-|-0-0-0-0-|-3--3-3--0-0-||
Gb|--x-x-x-x-|-2--2-2--2-2-|-x-x-x-x-|-2--2-2--2-2-||
Db|--4-4-4-4-|-0--0-0--2-2-|-4-4-4-4-|-0--0-0--2-2-||
Ab|--2-2-2-2-|-0--0-0--0-0-|-2-2-2-2-|-0--0-0--0-0-||
Eb|--0-0-0-0-|-------------|-0-0-0-0-|-------------||

Guitar 2
eb|------2------2-|-----0------0-|------2------2-|-----0------0-||
Bb|---------------|---3----------|---------------|---3----------||
Gb|----4------4---|-2--------2---|----4------4---|-2--------2---||
Db|--4------4-----|--------2-----|--4------4-----|--------2-----||
Ab|---------------|--------------|---------------|--------------||
Eb|---------------|--------------|---------------|--------------||

Bridge

Guitar 1
eb||-----------------|-----------------|
Bb||-----------------|-----------------|
Gb||-4-4-4-4-4-4-4-4-|-7-7-7-7-2-2-2-2-|
Db||-4-4-4-4-4-4-4-4-|-7-7-7-7-2-2-2-2-|
Ab||-2-2-2-2-2-2-2-2-|-5-5-5-5-0-0-0-0-|
Eb||-----------------|-----------------|

eb|-----------------|------------------|
Bb|-----------------|------------------|
Gb|-4-4-4-4-4-4-4-4-|-7-7-7-7-xxxxxxxx-|
Db|-4-4-4-4-4-4-4-4-|-7-7-7-7-xxxxxxxx-|
Ab|-2-2-2-2-2-2-2-2-|-5-5-5-5-xxxxxxxx-|
Eb|-----------------|---------xxxxxxxx-|

Guitar 2
eb||-----------------|---------0-0-0-0-|
Bb||-----------------|-3-3-3-3-0-0-0-0-|
Gb||-4-4-4-4-4-4-4-4-|-2-2-2-2-2-2-2-2-|
Db||-4-4-4-4-4-4-4-4-|-0-0-0-0-2-2-2-2-|
Ab||-2-2-2-2-2-2-2-2-|-0-0-0-0-0-0-0-0-|
Eb||-----------------|-----------------|

eb|-----------------|---------0-0-0-0-||
Bb|-----------------|-3-3-3-3-0-0-0-0-||
Gb|-4-4-4-4-4-4-4-4-|-2-2-2-2-2-2-2-2-||
Db|-4-4-4-4-4-4-4-4-|-0-0-0-0-2-2-2-2-||
Ab|-2-2-2-2-2-2-2-2-|-0-0-0-0-0-0-0-0-||
Eb|-----------------|-----------------||

Instrumental
(Guitar 1 does the Chorus)

Solo
eb||-----------------------------------------|-------------------------------|
Bb||-----------------------------------------|--------------10-9v(9)s--------|
Gb||-11h9h11h9h11h9h11h9h11h9h11h9h11h9h11h9h|11h9h11h9h11h9--------------13s|
Db||-----------------------------------------|-------------------------------|
Ab||-----------------------------------------|-------------------------------|
Eb||-----------------------------------------|-------------------------------|

eb|----------------------------------------|------------------------|
Bb|-----------------------------------10-9-|-9----------------------|
Gb|-11h9h11h9h11h9h11h9h11h9h11h9h11h9-----|---11-9-11-9------9--9s-|
Db|----------------------------------------|--------------11-11-11s-|
Ab|----------------------------------------|------------------------|
Eb|----------------------------------------|------------------------|

eb|--------------------------------------------|------------------------|
Bb|--------------------------------------------|----------------------10|
Gb|-11--11-11-11-11-11---13--13-13-13-13-13---9|-9-9-9-9-9---11--9-9----|
Db|-11--11-11-11-11-11---14--14-14-14-14-14---9|-9-9-9-9-9---11--9-9----|
Ab|--------------------------------------------|------------------------|
Eb|--------------------------------------------|------------------------|

eb|-------------|----------------------------------------||
Bb|-12b14~~~~~--|-12h14r12-10---12h14r12-10--------------||
Gb|-------------|------------11------------11------------||
Db|-------------|-----------------------------11-9--7----||
Ab|-------------|-------------------------------------9v-||
Eb|-------------|----------------------------------------||

Ending

Guitar 1
eb||--------------------------|
Bb||--------------------------|
Gb||-----------7-x-6-x-2-x-4--|
Db||----4---4--7-x-6-x-2-x-4--|
Ab||--2-4-2-4--5-x-4-x-0-x-2--|
Eb||--0-2-0-2-----------------|

eb|------------------------|
Bb|------------------------|
Gb|-----------7-x-6-xxxxxx-|
Db|----4---4--7-x-6-xxxxxx-|
Ab|--2-4-2-4--5-x-4-xxxxxx-|
Eb|--0-2-0-2--------xxxxxx-|

Guitar 2
eb||--------------------------|
Bb||--------------------------|
Gb||-----------7-x-6-x-2-x-4--|
Db||----4---4--7-x-6-x-2-x-4--|
Ab||--2-4-2-4--5-x-4-x-0-x-2--|
Eb||--0-2-0-2-----------------|

eb|-----------------|
Bb|-----------------|
Gb|-----------7-x-6-|
Db|----4---4--7-x-6-|
Ab|--2-4-2-4--5-x-4-|
Eb|--0-2-0-2--------|

then
Both guitars
eb||--------------------------|
Bb||--------------------------|
Gb||-----------7-x-6-x-2-x-4--|
Db||----4---4--7-x-6-x-2-x-4--|
Ab||--2-4-2-4--5-x-4-x-0-x-2--|
Eb||--0-2-0-2-----------------|

eb|------------------||
Bb|------------------||
Gb|-----------7-x-6--||
Db|----4---4--7-x-6--||
Ab|--2-4-2-4--5-x-4--||
Eb|--0-2-0-2---------||

-END-





Comments


Popular Vertical Horizon tabs & chords
Youre A God Bass Tabs
Best I Ever Had Chords
Best I Ever Had (Grey Sky Morning) Chords
Finding Me Chords
Wash Away Chords
Youre A God 2 Chords
Youre A God 3 Chords
Answer Me Tabs
Echo Ukulele
Wash Away Ukulele


Song lyrics



↑ Back to top | Tablatures and chords are parodies/interpretations of the original songs. You may use it for private study, scholarship, research or language learning purposes only
© 2014 AZChords.com Contact us | Privacy policy | DMCA | Add/correct tabs | Request tabs | Top 50 tabs