>
 >
Sunrays And Saturdays

Sunrays And Saturdays Guitar Tabs

Vertical Horizon - Sunrays And Saturdays chords, tabs, tablatures, lyrics

Guitar lessons | Add/correct | Request | Top 50 tabs Artists:  A B C D E F G H I J K L M N O P Q R S T U V W X Y Z 0-9

Sunrays And Saturdays Guitar Tabs – Vertical Horizon

CD, Sheet music, Poster

Do you like Sunrays And Saturdays? Share with your friends now
ChordsTabsUkulele
SUNRAYS AND SATURDAYS
                         
Words and Music by Vertical Horizon

Gtr I (A D G C E A) - 'Untitled'
Gtr II (A D G C E A) - 'Untitled'

 Intro
  Q=108
                 $
 4/4
  Gtr II
|-------0----||-------------------|--------0-----0------|
|-----4---0--||o------------------|------------4----0---|
|------------||-------------------|---------------------|
|------------||-------------------|---------------------|
|------------||o------------------|---------------------|
|------------||-------------------|---------------------|
|
| Gtr I
|------------||------0---------0--|-(0)----0--------0---|
|------------||o-----0---------0--|-(0)----0--------0---|
|------------||------1---------1--|-(1)----1--------1---|
|------------||------2------2-----|-(2)-2-(2)----2-(2)--|
|------------||o------------------|---------------------|
|------------||--0--(0)--0-(0)----|--0-----0---0--------|


                                   To Coda
|--------------------|----------0-----0-------||
|--------------------|--------------4---0----o||
|--------------------|------------------------||
|--------------------|------------------------||
|--------------------|-----------------------o||
|--------------------|------------------------||
|
|-(0)---0---------0--|-(0)------0-------0-----||
|-(0)---0---------0--|-(0)------0-------0----o||
|-(1)---2---------2--|-(2)------2-------2-----||
|-------2------2-----|-(2)--2--(2)----2-------||
|--------------------|-----------------------o||
|--2---(2)--2-(2)----|--2--(2)-(2)--2---------||


   Verse
    &
    Gtr II
||---------------------|--------0-----0------|
||o--------------------|------------4----0---|
||---------------------|---------------------|
||---------------------|---------------------|
||o--------------------|---------------------|
||---------------------|---------------------|
|
|   Gtr I
||--(0)---0---------0--|-(0)----0--------0---|
||o-(0)---0---------0--|-(0)----0--------0---|
||--(2)---1---------1--|-(1)----1--------1---|
||--------2------2-----|-(2)-2-(2)----2-(2)--|
||o--------------------|---------------------|
||---0---(0)--0-(0)----|--0-----0---0--------|


                                             4x
|--------------------|----------0-----0------||
|--------------------|--------------4---0---o||
|--------------------|-----------------------||
|--------------------|-----------------------||
|--------------------|----------------------o||
|--------------------|-----------------------||
|
|                                            4x
|-(0)---0---------0--|-(0)------0-------0----||
|-(0)---0---------0--|-(0)------0-------0---o||
|-(1)---2---------2--|-(2)------2-------2----||
|-------2------2-----|-(2)--2--(2)----2------||
|--------------------|----------------------o||
|--2---(2)--2-(2)----|--2--(2)-(2)--2--------||


 Pre-Chorus
  Gtr I
       T      T        T         T       T      T
|----0-x----0-x-|----0-x-------0-x-|-0-0-x-0--0-x---|-----0-x-------0-x---|
|----0-x----0-x-|----0-x-------0-x-|-0-0-x-0--0-x---|-----0-x-------0-x---|
|-2--2-x-2--2-x-|-4--4-x-------4-x-|-2-2-x-4--4-x-1-|-(1)-1-x-------1-x---|
|-2------2------|-2---------2------|-2-----4------2-|-(2)--------2--------|
|-0------0------|------------------|-------2--------|---------------------|
|---------------|-4------4-(4)---4-|-2------------0-|-(0)-----0-(0)-----0-|


                                                        Gtr I
       T      T        T         T       T      T
|----0-x----0-x-|----0-x-------0-x-|-0-0-x-0--0-x---||------0------0-----||
|----0-x----0-x-|----0-x-------0-x-|-0-0-x-0--0-x---||o-------0------0--o||
|-2--2-x-2--2-x-|-4--4-x-------4-x-|-2-2-x-2--2-x-4-||---4-------4-------||
|-2------2------|-2---------2------|-2-----2------4-||--(4)--------------||
|---------------|------------------|-0-----0------2-||o-(2)-------------o||
|-2------2------|-4------4-(4)---4-|----------------||-------------------||


   Chorus
    $$
          T        T           T        T
||-----0--x-(x)--0-x---|----0--x-(x)--0-x---|
||o----0--x-(x)--0-x---|----0--x-(x)--0-x---|
||-----2--x--2---2-x---|----4--x--4---4-x---|
||-----2-----2---------|----2-----2---------|
||o-0-(0)----0---------|--------------------|
||-------------------0-|-4-(4)----4-------4-|


        T      T           T       T
|----0--x-0--0-x---|-----0-x-----0-x----|
|----0--x-0--0-x---|-----0-x-----0-x----|
|----2--x-4--4-x-1-|-(1)-1-x-----1-x----|
|----2----4------2-|-(2)-------2--------|
|---------2--------|--------------------|
|-2-(2)----------0-|-(0)-----0-------0--|


                                To Dbl. Coda
        T        T           T          T
|----0--x-(x)--0-x---|----0--x-(x)---0--x---|
|----0--x-(x)--0-x---|----0--x-(x)---0--x---|
|----2--x--2---2-x---|----4--x--4----4--x---|
|----2-----2---------|----2-----2---(2)-----|
|--------------------|----------------------|
|-2-(2)----2-------0-|-4-(4)----4---(4)---4-|


                  D.S.S. al Dbl. Coda
        T      T           T       T
|----0--x-0--0-x---|-----0-x-----0-x----||
|----0--x-0--0-x---|-----0-x-----0-x---o||
|----2--x-4--4-x-1-|-(1)-1-x-----1-x----||
|----2----4------2-|-(2)-------2--------||
|-0-(0)---2--------|-------------------o||
|----------------0-|-(0)-----0-------0--||


   Outro
                        H.=H
    &&
                     3x
||-----0--x-0--0-x---||---0h2-4-2-0-----|-^0----*|
||o----0--x-0--0-x--o||-------------4h5-|-^0----*|
||-----2--x-4--4-x---||---------------4-|-^1----*|
||-----2----4--4-----||-----------------|-^4----*|
||o---------2--2----o||-----------------|-^2----*|
||--2-(2)------------||-0---------------|-^0----*|


Tablature Legend
----------------
 h   - hammer-on
 p   - pull-off
 b   - bend
 pb  - pre-bend
 r   - bend release (if no number after the r, then release immediately)
 /\  - slide into or out of (from/to "nowhere")
 s   - legato slide
 S   - shift slide
<n>  - natural harmonic
[n]  - artificial harmonic
n(n) - tapped harmonic
 ~   - vibrato
 tr  - trill
 T   - tap
 TP  - trem. picking
 PM  - palm muting
\n/  - tremolo bar dip; n = amount to dip
 \n  - tremolo bar down
 n/  - tremolo bar up
/n\  - tremolo bar inverted dip
 =   - hold bend; also acts as connecting device for hammers/pulls
 <>  - volume swell (louder/softer)
 x   - on rhythm slash represents muted slash
 o   - on rhythm slash represents single note slash

Misc Legend
-----------
 |  - bar
||  - double bar
||o - repeat start
o|| - repeat end
*|  - double bar (ending)
 :  - bar (freetime)
 $  - Segno
 &  - Coda
Tempo markers - <E/E./Q/Q./H/H.> = BPM(8/16=s8/s16), where s8 = swing 8ths, s16 = swing 16ths


***************************************************************************************
***************************************************************************************





Comments


Popular Vertical Horizon tabs & chords
You're A God Bass Tabs
Afterglow Chords
Best I Ever Had 1 Chords
I'm Still Here 2 Chords
Trying To Find Purpose Chords
Won't Go Away 1 Chords
You Say Chords
When You Cry Tabs
Everything You Want Ukulele
Lucky One Ukulele


Song lyrics



↑ Back to top | Tablatures and chords are parodies/interpretations of the original songs. You may use it for private study, scholarship, research or language learning purposes only
© 2014 AZChords.com Contact us | Privacy policy | DMCA | Add/correct tabs | Request tabs | Top 50 tabs