>
 >
One Time Around

One Time Around Guitar Tabs

Vertical Horizon - One Time Around chords, tabs, tablatures, lyrics

Guitar lessons | Add/correct | Request | Top 50 tabs Artists:  A B C D E F G H I J K L M N O P Q R S T U V W X Y Z 0-9

One Time Around Guitar Tabs – Vertical Horizon

CD, Sheet music, Poster

Do you like One Time Around? Share with your friends now
Tabs
Vertical Horizon - "One Time Around"
Eb tuning

Intro - Rhythm Guitar chords are shown above lead part, play 2x through

                 Bb5                   Ab5                   Gb5
eb|-------------|---------------------|---------------------|---------------|
Bb|-------------|---------------------|-------------------5-|-(5~)----------|
Gb|-6b7r6b7r6-4-|-(4~)----6b7r6b7r6-4-|-(4~)----6b7r6b7r6---|-------7---6---|
Db|-------------|---------------------|---------------------|---------------|
Ab|-------------|---------------------|---------------------|---------------|
Eb|-------------|---------------------|---------------------|---------------|

 Eb5 (Ebm)
|----------------------|
|----------------------|
|-4~-------6b7r6b7r6-4-|
|----------------------|
|----------------------|
|----------------------|



Verse Rhythm - play each chord then mute (except 4th bar) - play 2x
|---------------|---------------|--------------|-0------0---------|
|---------------|---------------|--------------|-0------0---------|
|-4-------------|-2-------------|--------------|-0------2---------|
|-4-------------|-2-------------|-5------------|-2------2---------|
|-2-------------|-0-------------|-5------------|-2------0---------|
|---------------|---------------|-3------------|-0----------------|



(0:40) Verse Lead Guitar lick - repeated throughout w/ wah
|----------------------------7/9-7~-| -- high note is not always played
|-----------------------------------|
|-4-4--4-4--4-4--4-4--4-4--4--------|
|-----------------------------------|
|-----------------------------------|
|-----------------------------------|




Chorus 1
|-0------------|------------|------------|-----------|
|-0------------|------------|------------|-----------|
|-0------------|------------|-7----------|-----------|
|-2------------|-5----------|-7----------|-7---------|
|-2------------|-5----------|-5----------|-7---------|
|-0------------|-3----------|------------|-5---------|

"Just this one time around..."



(1:28) Verse 2 - Same as First time


(2:06) Chorus 2 - Same as Chorus 1, except a second guitar adds this 2x:

 play 3x                      play as 4th bar
|---------------------|     |---------------------|
|-7----8-7------------|     |-10TP----------------|
|-------------9--7----|     |---------------------|
|-4----5-4------------|     |-7TP-----------------|
|-------------7--5----|     |---------------------|
|---------------------|     |---------------------|
* possibly uses octave pedal & low set of notes



(2:44) Play Verse Again


(3:03) Play Final Chorus


(3:21) Play Intro Again and end on Ebm chord



KEY
************************************

| /   slide up
| \   slide down
| h   hammer-on
| p   pull-off
| ~   vibrato
| +   harmonic
| x   Mute note
| b   Bend
| r  Bend release
| TP tremelo pick (repeated picking of notes)
************************************





Comments


Popular Vertical Horizon tabs & chords
Best I Ever Had Live Chords
Miracle Chords
Best I Ever Had 2 Tabs
Everything You Want Intro Tabs
I Try Intro Tabs
Love's Light Tabs
You're A God Tabs
All Of You Ukulele
Best I Ever Had Live Ukulele
Trying To Find Purpose Ukulele


Song lyrics



↑ Back to top | Tablatures and chords are parodies/interpretations of the original songs. You may use it for private study, scholarship, research or language learning purposes only
© 2014 AZChords.com Contact us | Privacy policy | DMCA | Add/correct tabs | Request tabs | Top 50 tabs