» » »

Vertical Horizon, One Of You Tabs (ver.1)

Artists:  A B C D E F G H I J K L M N O P Q R S T U V W X Y Z # 

One Of You Tabs (ver.1)

Vertical Horizon Tabs
 Rating:
4/5 (4 votes)
One Of You lessons Tabs too difficult? Try these video lessons and learn fast
                -------------------------------------------------------------------------------
-------------------------------------------------------------------------------

Standard Tuning (eBGDAE)
Key of D Major




NOTE: I'm guessing on the verse riff, you can hear it if you listen to the
background, however I can't hear it very well but am guessing that what I
put is close to correct. If nothing else, it sounds good lol. Feel free to
submit a correction!!









Chords Used:

    B	  	    A	  	    E	  	  Gsus2	  	  D
e|-----|	e|-----|	e|--0--|	e|--3--|	e|--2--|
B|-----|	B|-----|	B|--0--|	B|--3--|	B|--3--|
G|--4--|	G|--2--|	G|--1--|	G|--2--|	G|--2--|
D|--4--|	D|--2--|	D|--2--|	D|--0--|	D|--0--|
A|--2--|	A|--0--|	A|--2--|	A|--x--|	A|--0--|
E|-----|	E|-----|	E|--0--|	E|--3--|	E|-----|








MAIN RIFF/INTRO:

e|---------------------------------|---------------------------------|
B|---------------------------------|---------------------------------|
G|-4-4-------------2h4-------------|-4-4-------------2h4-------------|
D|-4-4-----2h4---------------------|-4-4-----2h4-------------2p1-----|
A|-2-2---------------------0h2-----|-2-2-----------------------------|
E|---------------------------------|---------------------------------|




VERSE RIFF:
e|---------------------------------|---------------------------------|
B|-0-4-5-4-0-4-5-4-0-4-5-4-0-4-5-4-|-0-4-5-4-0-4-5-4-0-4-5-4-0-4-5-4-|
G|---------------------------------|---------------------------------|
D|---------------------------------|---------------------------------|	
A|---------------------------------|---------------------------------|
E|---------------------------------|---------------------------------|








VERSE 1:

B	       B
Breathe in the water

B           B
Drown in the sky

B           B
High, high above her

B         A       E           B
While I'm flowing through your eyes


B          B
Hold me in motion

B            B
Still in your sun

B          B
Under this ocean

B         A           E    B
There's a world melts into one








CHORUS:

        D       E     B               B
And I'm hanging on to all that I hold dear

        D       E     B               B
And I'm letting go of all of my fear

D          E     Gsus2        A      MAIN RIFF x1
   Hanging on to every single one of you







VERSE 2:

B B | B B
B B | B B
B B | B B
A E | B B






[CHORUS]






BRIDGE:

MAIN RIFF x1
Go somewhere better

MAIN RIFF x1
Go to the sea

MAIN RIFF x1
Walk through the desert

          A         E     B
Till your love grows over me








FINAL CHORUS:

        D       E     B               B
And I'm hanging on to all that I hold dear

        D       E     B               B
And I'm letting go of all of my fear

D          E     Gsus2        A      B
   Hanging on to every single one of you

   Gsus2        A      B      B
To every single one of you

   Gsus2        A
To every single one

Gsus2        A      MAIN RIFF x2
Every single one of you








OUTRO RIFF:

e|---------------------------------|---------------------------------|
B|---------------------------------|---------------------------------|
G|-4-4-------------2h4-------------|-4-4-------------2h4-------------|
D|-4-4-----2h4---------------------|-4-4-----2h4-------------2p1-----|
A|-2-2---------------------0h5-2---|-2-2-----------------------------|
E|---------------------------------|---------------------------------|


e|---------------------------------|---------------------------------|
B|---------------------------------|---------------------------------|
G|-4-4-------------2h4-------------|-4-4-------------2h4-------------|
D|-4-4-----2h4---------------------|-4-4-----2h4-------------2p1-----|
A|-2-2---------------------0h5-2---|-2-2-----------------------------|
E|---------------------------------|---------------------------------|


e|---------------------------------|
B|---------------------------------|
G|-4~~~~~~~~~~~~~~~~~~~~~~~~~~~~~~~|
D|-4~~~~~~~~~~~~~~~~~~~~~~~~~~~~~~~|
A|-2~~~~~~~~~~~~~~~~~~~~~~~~~~~~~~~|
E|---------------------------------|







KEY

h  hammer on
p  pull off
~  note held
            
Submit corrections

comments powered by Disqus
↑ Back to top | Vertical Horizon Tabs for One Of You. Lyrics for acoustic guitar and electric guitar. Tablatures and chords are parodies/interpretations of the original songs. You may use it for private study, scholarship, research or language learning purposes only