» » »

Vertical Horizon, Inside Tabs (ver.1)

Artists:  A B C D E F G H I J K L M N O P Q R S T U V W X Y Z # 

Inside Tabs (ver.1)

Vertical Horizon Tabs
Rating:
0/5 (0 votes)
Inside lessons Tabs too difficult? Try these video lessons and learn fast
                Capo 1

Intro:

String Riff (relative to capo):
e|------------------------------------|
B|------------------------------------|
G|------------------------------------|
D|--------7---------------------------|
A|-7/9-10--9-10-9-5h7p5-7------5------|
E|-----------------------5h7-8--7-8-5-|

play riff twice over these chords:
A  D  A
F  G  A     
x2


A
We're all lost 
D       A
We're all found 
F      G       A
 We're all the same 
A
Just one heart 
D       A        
Beats in us 
F      G         A
 We're different names 


(over intro riff/chords):
           F      G      A
Just one heart 
                    A     D     A
Oh we're different names 
F  G  A



Chorus:
A    D        F     G       A
Hold me, inside you 
      A       D
Cause I wanna be, 
  F       G
Inside you 
A
Inside you 


Intro/Riff


Verse 2:
A
Take this hand 
D        A
Lift me up
F     G     A
 Into your sky 
A
Oh, hold me here 
D
It's just you and me 
F       G        A
 Cause you make me fly 
Oh you make me fly 


Chorus:
A    D        F     G       A
Hold me, inside you 
      A       D
Cause I wanna be, 
  F       G
Inside you 
A
Inside you 



Solo:

e|----------------------------------------|
B|----------------------------------------|
G|------------------5-5-7-/9-7~-----------|
D|-7-9-10-9-7--------7----------5/7-5p4---|
A|-----------9~-5----------------------5--|
E|----------------------------------------|

e|-5-7-8-7----/10~---/13--13--13----------|
B|--------7~------------15--15--15-13-12~~|
G|----------(7)---------------------------|
D|----------------------------------------|
A|----------------------------------------|
E|----------------------------------------|



A
We're all lost 
D       A
We're all found 
F      G       A
 We're all the same... 


Chorus:
A    D        F     G       A
Hold me, inside you 
      A       D
Cause I wanna be, 
  F       G
Inside you 
A
Inside you 


A        D
Hold me, hold me
F         G       A
 hold me inside you
A         D
Hold me, hold me 
F         G       A
 hold me inside you


Then just repeat intro riff/chords 10x to end
            
Submit corrections

comments powered by Disqus
↑ Back to top | Vertical Horizon Tabs for Inside. Lyrics for acoustic guitar and electric guitar. Tablatures and chords are parodies/interpretations of the original songs. You may use it for private study, scholarship, research or language learning purposes only