>
 >
Finding Me

Finding Me Guitar Tabs

Vertical Horizon - Finding Me chords, tabs, tablatures, lyrics

Guitar lessons | Add/correct | Request | Top 50 tabs Artists:  A B C D E F G H I J K L M N O P Q R S T U V W X Y Z 0-9

Finding Me Guitar Tabs – Vertical Horizon

CD, Sheet music, Poster

Do you like Finding Me? Share with your friends now
ChordsTabsUkulele


Tune down 1/2 step (Eb-Ab-Db-Gb-Bb-Eb)

Intro

G                                         Em7 
 I don't think you notice when you see my face 
Em7								   
I guess you're waiting to spin me around again 
G   									   Em7	
Wheels I guess are turning somewhere inside my head 
Em7    						  Am
I know that this is deeper than you get 
Am          C2           
But you're coming back again 
G         D/F#              Am
You don't mean to waste my time 
Am             C2
But you're coming back so 

Chorus:
G
Don't tell me how to be 
Em7
'Cause I like some suffering 
G
Don't ask me what I need 
Em7
I'm just fine 
             C2  D
Here finding me 
C2  D
Me 

G (& Riff 1)    				 Em7
I've already given up on getting through 
Em7
I never question who I'm talking to 
G									Em7
Oh so much for nothing but nothing means so much 
Em7
I know it's touching but I've been out of touch 
Am       C2      
And it's all that I can do 
G      D/F#
I'm a sight for my sore eyes 
Am       C2        
But it's all I am so 

Chorus 

Solo 1

Verse 3:
G (& Riff 1)        				     Em7
I don't think you notice when I can't reach out 
Em7
I guess you're waiting on somebody else again 
G									Em7
Oh so much for talking it's all been said before 
Em7       								
I'm hearing something but I wish you'd just say more 
Am         C2
But you're going off again 
G      D/F#
When I try to just hold on 
Am         C2
But you're going off so 

Chorus

        C2   D
Finding me 
C2    D
Me

Solo 2 - and fade out
-------------------------------------------------------------
Guitar 1 - Rhy. 
Guitar 2- Solo and Riffs effects: Chorus and overdrive
-------------------------------------------------------------
Intro:Guitar 1 |G--Em7--|(2x)
      Guitar 2 |Riff1 2x|

Solo 1 and 2: Guitar 1 |G--Em7--|(2x)
              Guitar 2 |Riff 2  |
-------------------------------------------------------------

Chord List
   G	 Em7  Am C2   D   D/F#   
Eb-3--0(3)-0--0(3)-2(0)-0  <--- Ps:.( )itīs up to you
Bb-3--3----1--3----3----3
Gb-0--0----2--0----2----2
Db-0--2----2--2----0----0
Ab-2--2----0--3---------0
Eb-3--0-----------------2

-------------------------------------------------------------
Riff 1
   G
Eb--10--10------10--10---------------------------------------
Bb-8--8---8----8---8---8-------------------------------------
Gb-----------------------------------------------------------
Db-----------------------------------------------------------
Ab-----------------------------------------------------------
Eb-----------------------------------------------------------
   Em7
Eb--10--10------10--10--10-----------------------------------
Bb-7---7---7---7---7---7-------------------------------------
Gb-----------------------------------------------------------
Db-----------------------------------------------------------
Ab-----------------------------------------------------------
Eb-----------------------------------------------------------

Riff 2 - SOLO #1 same as #2
   G                          Em7
Eb-5/7-7-7-10-10-10/7-7-7-5-5-3-2-0-0-0-3-2-0-0--------------
Bb---------------------------------------------3-3-----------
Gb-----------------------------------------------------------
Db-----------------------------------------------------------
Ab-----------------------------------------------------------
Eb-----------------------------------------------------------
   G                          Em7
Eb-5/7-7-7-10-10-10/7-7-7-5-5-3-2-0-0-0-3-2-0-0-2-3----------
Bb-----------------------------------------------------------
Gb-----------------------------------------------------------
Db-----------------------------------------------------------
Ab-----------------------------------------------------------
Eb-----------------------------------------------------------

tHe eNd





Comments


Popular Vertical Horizon tabs & chords
Everything You Want 5 Chords
I'm Still Here 2 Chords
Wash Away Chords
Better When You're Not There Tabs
Inside Tabs
Shackled 2 Tabs
We Are Tabs
Echo Ukulele
Goodbye Again Ukulele
Wash Away Ukulele


Song lyrics



↑ Back to top | Tablatures and chords are parodies/interpretations of the original songs. You may use it for private study, scholarship, research or language learning purposes only
© 2014 AZChords.com Contact us | Privacy policy | DMCA | Add/correct tabs | Request tabs | Top 50 tabs