» » »

Vertical Horizon, Everything You Want Tabs (ver.2)

Artists:  A B C D E F G H I J K L M N O P Q R S T U V W X Y Z # 

Everything You Want Tabs (ver.2)

Vertical Horizon Tabs
 Rating:
4/5 (25 votes)
Everything You Want lessons Tabs too difficult? Try these video lessons and learn fast
1
                ---------------------------------------------------------------------
             Everything You Want - Vertical Horizon
---------------------------------------------------------------------
Just about all VH songs are tuned a half step down so stop whining and do it already.

Intro (repeats throughout song):
e|-0-0-0-0-0-0-0-0-0-0-0-0-0-0-0-0-0-0-0-0-0-0-0-0-0-0-0-0-0-0-0-0--|
B|-3-5-5-3-5-5-3-5-3-5-5-3-5-5-8-7-3-5-5-3-5-5-3-5-3-5-5-3-5-5-1-0--|
G|------------------------------------------------------------------|
D|------------------------------------------------------------------|
A|------------------------------------------------------------------|
E|------------------------------------------------------------------|

Verse:

For the first an second versus play this twice before the words 
begin (3rd verse skip this and go right to the chords).
e|------------------------------------------------------------------|
B|-----1------------3-3-----3-3-3-----------------------------------|
G|-0h2-2-0h2-2-2-2--2-2-----0-0-0-----------------------------------|
D|-0h2-2-0-0-0-0-0--0-0-0h2-2-2-2-----------------------------------|
A|-0-----0h2-2-2-2-2----0h3-3-3-3-----------------------------------|
E|------------------------------------------------------------------|

Then play the following:


   Am E7sus4  E? Cadd9
e|-0--0-------0--0--------------------------------------------------|
B|-1--0-------3--3--------------------------------------------------|
G|-2--2-------2--0--------------------------------------------------|
D|-2--0-------0--2--------------------------------------------------|
A|----2-------2--3--------------------------------------------------|
E|------------------------------------------------------------------|

Am        E7sus4
Somewhere they're speaking
E?          Cadd9
Its already coming in
Am         E7sus4        E?           Cadd9      
Oh and its rising in the back of your mind
Am        E7sus4
You never could get it
E?         Cadd9
Unless you were fed it
Am      E7sus4              E?        Cadd9
And now you're here and you dont know why


These chords are played by striking the first string of the chord, a miniscule pause and then the rest.
Kinda Dave Matthewsish.

Chorus:
  Am  G  Em  D  C
e|0---3--0---2--0---------------------------------------------------|
B|1---3--0---3--1---------------------------------------------------|
G|2---0--0---2--0---------------------------------------------------|
D|2---0--2---0--2---------------------------------------------------|
A|0---2--2------3---------------------------------------------------|
E|----3--0------0---------------------------------------------------|

Am                  G
He's everything you want
Em                  D
He's everything you need
Am                  G
He's everything inside of you
Em                  D
That you wish you could be
Am                  G
He says all the right things
Em                  D
At exactly the right time
Am                  G              D           C (Let ring)
But he means nothing to you and you don't know why

Bridge:
Em
But you'll just sit tight
C
And watch it unwind
Em                    D       C
It's only what you're asking for
Em
And you'll be just fine
C
With all of your time
Em                    D       C (let ring)
It's only what you're waiting for


Finish up with:
e|------------------------------------------------------------------|
B|-----1------------3-3-----3-3-3-----------------------------------|
G|-0h2-2-0h2-2-2-2--2-2-----0-0-0-----------------------------------|
D|-0h2-2-0-0-0-0-0--0-0-0h2-2-2-2-----------------------------------|
A|-0-----0h2-2-2-2-2----0h3-3-3-3-----------------------------------|
E|------------------------------------------------------------------|

(during the "And I don't know why, why, and I don't know" at the end of the song.)  And then do the intro again.

=====================================================================
            
Submit corrections

comments powered by Disqus
↑ Back to top | Vertical Horizon Tabs for Everything You Want. Lyrics for acoustic guitar and electric guitar. 1 Tablatures and chords are parodies/interpretations of the original songs. You may use it for private study, scholarship, research or language learning purposes only