» » »

Vertical Horizon, Echo Tabs (ver.1)

Artists:  A B C D E F G H I J K L M N O P Q R S T U V W X Y Z # 

Echo Tabs (ver.1)

Vertical Horizon Tabs
Rating:
0/5 (0 votes)
Echo lessons Tabs too difficult? Try these video lessons and learn fast
                
Last update: October 31st, 2003


 Tune guitars down 1/2 step

 G5 3x0033  C      330201  Amadd9 x07500 
 D  xx0232  Emadd9 022002  Em     022000
 Am x02210  Bsus2  x24400


Tune guitar down 1/2 step

 [intro (acoustic)]

      G5      D       Am      C       G5      D       Am      C       

Eb |------3-3-----2-2-----0-0-----0-0-----3-3-----2-2-----0-0-----0-0-------------
Bb |------3-3-----3-3-----1-1-----1-1-----3-3-----3-3-----1-1-----1-1-------------
Gb |------0-0-2-2-2-2-2-2-2-2-----0-0-----0-0-2-2-2-2-2-2-2-2-----0-0-------------
Db |--0-0-0-0-0-0-0-0-2-2-2-2-2-2-2-2-0-0-0-0-0-0-0-0-2-2-2-2-2-2-2-2-------------
Ab |------------------0-0-0-0-3-3-3-3-----------------0-0-0-0-3-3-3-3-------------
Eb |--3-3-3-3-----------------3-3-3-3-3-3-3-3-----------------3-3-3-3-------------
      *       *       *       *       *       *       *       * 

01 Echo, echo                          We come and we go
02 No I don't want to be just another  Echo echo

 [verse riff (dist.)]

      Emadd9          Bsus4   Amadd9  Emadd9          Bsus4   Amadd9 

Eb |--2-2-----2-2-----0-0-----0---0---2-2-----2-2-----0-0-----0---0---------------
Bb |--0-0-----0-0-----0-0-----0---0---0-0-----0-0-----0-0-----0---0---------------
Gb |--0-0-----0-0-----4-4-----5---5---0-0-----0-0-----4-4-----5---5---------------
Db |--2-2-----2-2-----4-4-----7---7---2-2-----2-2-----4-4-----7---7---------------
Ab |--2-2-----2-2-----2-2-----0---0---2-2-----2-2-----2-2-----0---0---------------
Eb |--0-0-----0-0---------------------0-0-----0-0---------------------------------
      *       *       *       *       *       *       *       * 

03 Everywhere I go there's something that I really need
04 Everyone I know is someone that I want to be   
05 Even though I don't really know    
06 Me
07 I better pick it up before I let it slip away 
08 I better stick it out before I take another day 
09 Into mouth Everything I say fades 
10 Out 

 [chorus riff (dist.)]

      G5      D       Am      C       G5      D       Am      C       

Eb |------3-3-----2-2-----0-0-----0-0-----3-3-----2-2-----0-0-----0-0-------------
Bb |------3-3-----3-3-----1-1-----1-1-----3-3-----3-3-----1-1-----1-1-------------
Gb |------0-0-2-2-2-2-2-2-2-2-----0-0-----0-0-2-2-2-2-2-2-2-2-----0-0-------------
Db |--0-0-0-0-0-0-0-0-2-2-2-2-2-2-2-2-0-0-0-0-0-0-0-0-2-2-2-2-2-2-2-2-------------
Ab |------------------0-0-0-0-3-3-3-3-----------------0-0-0-0-3-3-3-3-------------
Eb |--3-3-3-3-----------------3-3-3-3-3-3-3-3-----------------3-3-3-3-------------
      *       *       *       *       *       *       *       *

11 Echo, echo                          We come and we go
12 No I don't want to be just another  Echo echo
            

comments powered by Disqus
↑ Back to top | Vertical Horizon Tabs for Echo. Lyrics for acoustic guitar and electric guitar. Tablatures and chords are parodies/interpretations of the original songs. You may use it for private study, scholarship, research or language learning purposes only